Zacznij systematycznie uczyć się grać na gitarze razem ze stroną Moja nauka - będziesz miał/miała do niej dostęp po zalogowaniu się w serwisie

Cichy zapada zmrok - Piosenki Religijne

Opracował -a: zajop,
Redaktor: Tomek Pietrzkowski,
Pochodzi z: http://www.chords.pl
Data publikacji: 2006-08-23 00:01
 
Moja nauka


Ups, problem :-/
Zaloguj się Mój śpiewnik
|--0--0--3--3--3--0----------------------0---------
|-------------------------3--1------1--3-----------
|---------------------------------2----------------
|--------------------------------------------------
|--------------------------------------------------
|--------------------------------------------------

|--0--0--3--3--3--0--------------------------------
|------------------------3--1------1--3------------
|--------------------------------2----------2------
|--------------------------------------------------
|--------------------------------------------------
|--------------------------------------------------

|--0--3--5--5--3--5--3--5--7--5--3--0--------------
|--------------------------------------------------
|--------------------------------------------------
|--------------------------------------------------
|--------------------------------------------------
|--------------------------------------------------

|----------0--0-----0---------------------0--------
|------1---------3-----3--1------1--3--------------
|--2----------------------------2------------------
|--------------------------------------------------
|--------------------------------------------------
|--------------------------------------------------

|--0--3--5--5--3--5--3--5--7--5--3--0--------------
|--------------------------------------------------
|--------------------------------------------------
|--------------------------------------------------
|--------------------------------------------------
|--------------------------------------------------

|----------0--0-----0------------------------------
|------1---------3-----3--1------1--3--------------
|--2----------------------------2----------2-------
|--------------------------------------------------
|--------------------------------------------------
|--------------------------------------------------

Dodaj komentarz ...i/lub link do filmiku video

Zaloguj się do serwisu
Wszelkie materiały i wypowiedzi zamieszczone na www.chords.pl są własnością ich autorów.