Zacznij systematycznie uczyć się grać na gitarze razem ze stroną Moja nauka - będziesz miał/miała do niej dostęp po zalogowaniu się w serwisie

Marsz Pogrzebowy B-Moll - Piosenki Religijne

Dodał -a: life,
Redaktor: Tomek Pietrzkowski,
Pochodzi z: http://www.ultimate-guitar.com/
Data publikacji: 2006-10-25 00:02
 
Moja nauka


Ups, problem :-/
Zaloguj się Mój śpiewnik
E||-----------------------|-----------------------|------------------------|
B||-----------------------|-----------------------|------------------1---0-|
G||--2----2---2-2---------|--2----2---2-2---------|--2----2---2-2----2-----|
D||--2----3-----2----3----|--2----3-----2----3----|--2----3-----2----3-----|
A||--0----3-----0----3----|--0----3-----0----3----|--0----3-----0----3-----|
E||-----------------------|-----------------------|------------------------|

------------------------||-------------------0-----|------------------------|
--0---------------------||---1----1---1-1--------3-|--3---1-1---1-1---------|
------2-2---2-2---------||*--2----2-----2----2-----|--2-----2-----2---------|
--2-----3-----2----3----||*--2----3-----2----3-----|--2-----3-----2----3----|
--0-----3-----0----3----||---0----3-----0----3-----|--0-----3-----0----3----|
------------------------||-------------------------|------------------------|

--5---3-1---0-0---------|--5---3-1---0-0---------|------------------------|
-------------------1----|-------------------1----|------------------1---0-|
--2-----2-----2----2----|--2-----2-----2----2----|--2----2---2-2----2-----|
--2-----3-----2----3----|--2-----3-----2----3----|--2----3-----2----3-----|
--0-----3-----0----3----|--0-----3-----0----3----|--0----3-----0----3-----|
------------------------|------------------------|------------------------|

--------------------------|--5---3-1---0-0---------|--5---3-1---0-0---------|
--1g0---------------------|-------------------1----|-------------------1----|
--------2-2---2-2---------|--2-----2-----2----2----|--2-----2-----2----2----|
----2-----3-----2----3----|--2-----3-----2----3----|--2-----3-----2----3----|
----0-----3-----0----3----|--0-----3-----0----3----|--0-----3-----0----3----|
--------------------------|------------------------|------------------------|

------------------------|--------------------------|-------------------------|
------------------1---0-|--1g0----------------0----|--1----------------0---1-|
--2----2---2-2----2-----|--------2-2---2-2----0----|--0----------0---2-0-----|
--2----3-----2----3-----|----2-----3-----2----3----|--2----2---3-------------|
--0----3-----0----3-----|----0-----3-----0---------|--3----3-----3-----------|
------------------------|---------------------3----|-------------------------|

--0-----------------------|-------------------------|-----------------------|
--0----0-----3------------|-------------------0---1-|--1---------0----------|
--0--------2-2---0-0------|-------------1---2-------|--2---------1----------|
-------0----------------3-|--2----2---4-------2-----|--1----4----2----2---4-|
-----------3-3---2-2----2-|--5----------3-----------|-----------------------|
--3---------------------4-|--5----5-----------------|--0--------------------|


--3----3----3----------|--0----0---------------|------------------------|
--0----0----1----1-----|--1----0---------------|------------------1---0-|
--0--------------------|--1----1----2----------|--2----2---2-2----2-----|
---------------------1-|--2---------3----2-----|--2----3-----2----3-----|
------------3----------|--------------------3--|--0----3-----0----3-----|
-------3---------------|-------0---------------|------------------------|

------------------------|--0----------------------|--0-----------------------|
-0----------------1---3-|--1----------------0---1-|--0----0-----3------------|
-----2-2---2-2----1---4-|--0----------0---2-0-----|--0--------2-2---0-0------|
-2-----3-----2----1---3-|-------2---3-------------|-------0----------------3-|
-0-----3-----0----------|--3----3-----3-----------|-----------3-3---2-2----2-|
------------------4---3-|-------------------------|--3---------------------4-|


-------------------------|-----------------------|--3----3----3----------|
-------------------0---1-|--1---------0----------|--0----0----1----1-----|
-------------1---2-------|--2---------1----------|--0--------------------|
--2----2---4-------2-----|--1----4----1----1---4-|---------------------1-|
--5----------3-----------|-----------------------|------------3----------|
--5----5-----------------|--0--------------------|-------3---------------|


--0----0---------------|------------------------|------------------------||
--1----0---------------|------------------1---0-|--0---------------------||
--1----1----2----------|--2----2---2-2----2-----|------2-2---2-2--------*||
--2---------3----2-----|--2----3-----2----3-----|--2-----3-----2--------*||
--------------------3--|--0----3-----0----3-----|--0-----3-----0---------||
-------0---------------|------------------------|------------------------||

------------------------|--0-----------1--0--------|--------5-----3----------|
--0---------------------|-----------1--------3--1--|--0--------0-----------0-|
------2-2---2-2----0----|--------0-----------0-----|--------0-----------0----|
--2-----3-----2---------|-----2-----------2--------|--0--3--------0--3-------|
--0-----3-----0---------|--3-----------3-----------|-------------------------|
-------------------3----|--------------------------|-------------------------|


--1-----------3--1--0-----|--------8-----3-----------|
-----------0-----------3--|--1-----5--------------1--|
--------0-----------0-----|-----0-----0--------0-----|
-----0-----------0--------|-----------------2--------|
--------------------------|--3-----------3-----------|
--3-----------3-----------|--------------------------|


--0-----------1--0--------|-----------0--1-----0-----|
-----------1--------3--2--|--3--2--3--------------3--|
--------0-----------0-----|-----2-----2-----2--------|
-----2-----------2--------|--0-----3-----------0-----|
--3-----------0-----------|--------------------------|
--------------------------|--------------1-----------|

---------------5--3--1-----|--------------------------|
--1--------0-1-------0-----|--3-----------1-----------|
--------2---------------0--|-----------0--------0-----|
-----1------------0--------|-----0--3--------2-----2--|
---------------------------|--------------3-----------|
--2------------3-----------|--3-----------------------|


|---------------------------|--------0-----------------|
|---0-----------1--0--------|-----------1--3-----------|
|*-----------0--------2--0--|--------------------------|
|*--------0-----------0-----|--4-----3-----------3-----|
|------2-----------2--------|-----3-----------3-----3--|
|---3-----------3-----------|--5-----------5-----------|


--------------------------|--------------0-----------|
--------------------0-----|--------6-----------------|
--5-----2-----7--5--------|--------------------0-----|
-----------------------7--|--6-----------------------|
-----6-----6-----6--6--6--|-----5--L--5-----5-----5--|
--5-----------5-----------|--7-----------7-----------|


--0-----------1--0--------|--------5------------------|
-----------1--------3--1--|--1--------------0--1----0-|
--------2-----------2-----|--------------------2------|
-----2-----------2--------|--0--3--L--3-----2-----2---|
--3-----------3-----------|---------------------------|
--------------------------|--------------0------------|


-----------------------------|--------0-----1-----------|
--0--------------0--3g1----0-|--0-----------------------|
--------2--------------------|--------1-----------0-----|
-----0--L--0-----0----L--1---|-----------2--0--3-----3--|
-----------------------------|-----2--------------------|
--1-----------3--------------|--0-----------------------|


--0-----------1--0--------|--------5-----3-----------|
-----------1--------3--1--|--0--------0-----------0--|
--------0-----------0-----|--------0-----------0-----|
-----2-----------2--------|--0--3--------0--3--------|
--3-----------3-----------|--------------------------|
--------------------------|--------------------------|

--1-----------3--1--0-----|--------8-----3-----------|
-----------0-----------3--|--1-----5--------------1--|
--------0-----------0-----|-----0-----0--------0-----|
-----0-----------0--------|-----------------2--------|
--------------------------|--3-----------3-----------|
--3-----------3-----------|--------------------------|


--0-----------1--0--------|-----------0--1-----0-----|
-----------1--------3--2--|--3--2--3--------------3--|
--------0-----------0-----|-----2-----2-----2--------|
-----2-----------2--------|--0-----3-----------0-----|
--3-----------0-----------|--------------------------|
--------------------------|--------------1-----------|


---------------5--3--1-----|-------------------------||
--1--------0-1-------0-----|--3-----------1----------||
--------2---------------0--|-----------0--0---------*||
-----1------------0--------|-----0--3-----2---------*||
---------------------------|--------------3----------||
--2----