Zacznij systematycznie uczyć się grać na gitarze razem ze stroną Moja nauka - będziesz miał/miała do niej dostęp po zalogowaniu się w serwisie

Chrześcijanin Tańczy (tab) - Piosenki Religijne

Opracował -a: -slash-,
Dodał -a: -slash-,
Redaktor: Seba,
Pochodzi z: http://www.chords.pl
Data publikacji: 2012-01-05 21:17
 
Moja nauka


Ups, problem :-/
Zaloguj się Mój śpiewnik
chrześcijanin tańczy...
E1|---------------------|---------------------|-
H2|---------------------|---------------------|-
G3|---------------------|---------------------|-
D4|--5--3--5--7--9---9--|--7--5--7--9---5--2--|-   x2
A5|--5--3--5--7--9---9--|--7--5--7--9---5--2--|-
E6|--3--1--3--5--7---7--|--5--3--5--7---3--0--|-



tańczą...
E1|---------------------|---------------------|-
H2|---------------------|---------------------|-
G3|--9-5--9-5-----------|--7-5-7-9--5--2------|-
D4|--9-5--9-5-----------|--7-5-7-9--5--2------|-
A5|--7-3--7-3-----------|--5-3-5-7--3--0------|-
E6|---------------------|---------------------|-


             adamR,NoweMiastoN/P

Dodaj komentarz ...i/lub link do filmiku video

Zaloguj się do serwisu
Wszelkie materiały i wypowiedzi zamieszczone na www.chords.pl są własnością ich autorów.