Zacznij systematycznie uczyć się grać na gitarze razem ze stroną Moja nauka - będziesz miał/miała do niej dostęp po zalogowaniu się w serwisie

O Jezu ufam Tobie - Piosenki Religijne

Opracował -a: apacz126,
Redaktor: Miłosz,
Pochodzi z: http://www.chords.pl
Data publikacji: 2006-01-23 00:10
 
Moja nauka


Ups, problem :-/
Zaloguj się Mój śpiewnik
  C
O Jezu ufam Tobie
   a
Za Ręce, Stopy obie
d                  F          G
Za przebite Serce, ufam, ufam Tobie!




|-----0--0--0---0--0-----0--0--0--3--0--0-------
|-------------3---------------------------------
|---0-------------------0-----------------------
|-----------------------------------------------
|-----------------------------------------------
|-----------------------------------------------


|-1--1--1--1--3--1--3--3---1--0-----------------
|---------------------------------3--3----------
|-----------------------------------------------
|-----------------------------------------------
|-----------------------------------------------
|-----------------------------------------------

Dodaj komentarz ...i/lub link do filmiku video

Zaloguj się do serwisu
Wszelkie materiały i wypowiedzi zamieszczone na www.chords.pl są własnością ich autorów.