Zacznij systematycznie uczyć się grać na gitarze razem ze stroną Moja nauka - będziesz miał/miała do niej dostęp po zalogowaniu się w serwisie

Ave Maria Schubert - Piosenki Religijne

Dodał -a: kaziulis,
Redaktor: Seba,
Data publikacji: 2012-11-27 23:35
 
Moja nauka


Ups, problem :-/
Zaloguj się Mój śpiewnik
e-----------------------------------------------------------------------------------------------
b-11-11-10-11-15-13-11-13-15-13-11--------------15-15-15-13----------15-17-15-14----13-11-10-13-
g-----------------------------------14-12-14-15-------------15-14-12-------------14-------------

e-10-11---------------------------------13------------------------------------------------------
b-------13-10-11-15-13-13---------12-15-----15-12-13-------11-13-11-10-----------13-12-13-12-13-
g--------------------------14-12---------------------12-14--------------12-10-10----------------

e-----------------------------------------------------------------------13-11-11----------------
b-15-13-11-11-11-13-12-13-16-15-13-11-11-11-13-13-15-16-13-15-15-13-15--------------------------
g----------------------------------------------------------------------------------12-12--------

e-----------------------------------------------------------------------------------------------
b-13-15-13-13-11-10-11-13-14-13-11-13-------------11-11-10-11-15-13-11--------------------------
g-----------------------------------------------------------------------------------------------


dorzucam filmik z którego pisałem opracowanie gdyż nie potrafię zaznaczyć prawidłowo wszystkich smaczków :>

pozdrawiam
Dodał: kaziulis, 2012-11-27 23:37
Opracowania video z komentarzy

Dodaj komentarz ...i/lub link do filmiku video

Zaloguj się do serwisu
Wszelkie materiały i wypowiedzi zamieszczone na www.chords.pl są własnością ich autorów.