Zacznij systematycznie uczyć się grać na gitarze razem ze stroną Moja nauka - będziesz miał/miała do niej dostęp po zalogowaniu się w serwisie

Poranek Maryi - Piosenki Religijne

Opracował -a: rodzina123,
Redaktor: Miłosz,
Data publikacji: 2006-03-24 00:22
 
Moja nauka


Ups, problem :-/
Zaloguj się Mój śpiewnik
„   Poranek   Maryi   „

wstęp – wstawka  instrumentalna  :

gitara II  wchodzi  przedtaktem

e--------------------------
h------------------9--H10--
g--------9--H11------------
d----9---------------------
a--------------------------
e--------------------------

teraz  wchodzą  dwie  gitary   :

gitara  I  -  akordy  :

|    E    |    E    |    c#    |    c#    |
|     A     |    A    |    H    |    H    |    ( x2 )

gitara  II  -  c.d.  melody

e----------------------------  ------------------------------
h---10---------9-------9-----  -----------------------9--H10-
g------------------11--------  ------------9--H11------------
d----------------------------  --------9---------------------
a----------------------------  ------------------------------
e----------------------------  ------------------------------

e----------------------------  ------------------------------
h---10---------9------9------  -9-------9---12--p9--\--5-----
g------------------11-----11-  ------------------------------
d----------------------------  ------------------------------
a----------------------------  ------------------------------
e----------------------------  ------------------------------

e----------------------------  ------------------------------
h-----------------------5----  -----------------9--10--p9----
g---6------\-----------------  ---6----\----x(9)-----------11
d----------------------------  ------------------------------
a----------------------------  ------------------------------
e----------------------------  ------------------------------

e----------------------------  ------------------------------
h----------------------------  ------------------------------
g---8--------\---------------  ------------------------------
d---9--------\---------------  ------------------------------
a----------------------------  ------------------------------
e----------------------------  ------------------------------
powt.

zwrotka  |   E   |   E   |   g#  |   g#  |
         |   E   |   E   |   g#  |   g#  |
         |   A   |   A   |   c#  |   c#  |
         |    A  |   A   |   H   |   H   |

refren   |   A   |   H   |   E   |  c#   |   ( x 3 )
         |   A   |   H   |   A   |   E   |   E …stop !

wstawka instr.   j.w.

Dodaj komentarz ...i/lub link do filmiku video

Zaloguj się do serwisu
Ostatnie komentarze
1.
rodzina123
2006-03-24 15:06
mam fragment nagrany na 3 gitary + rytm - mp3
Wszelkie materiały i wypowiedzi zamieszczone na www.chords.pl są własnością ich autorów.