Zacznij systematycznie uczyć się grać na gitarze razem ze stroną Moja nauka - będziesz miał/miała do niej dostęp po zalogowaniu się w serwisie

Barka (Tab) - Piosenki Religijne

Opracował -a: Kamila Efenberg,
Dodał -a: Kamila Efenberg,
Redaktor: Seba,
Pochodzi z: http://www.chords.pl
Data publikacji: 2010-08-16 00:01
 
Moja nauka


Ups, problem :-/
Zaloguj się Mój śpiewnik
|----------------------------------------------------------------------------------------|
|--2-------------------------------------------------------------------------------------|
|-----2-4-5-4-2-0-0---2-4-5-5-5-5-5-4-2-2-----2-4-6--6-7--4-2-2--2-11-11-13-14-13-11-9-9-|
|-------------------------------------------2--------------------------------------------|
|----------------------------------------------------------------------------------------|
|----------------------------------------------------------------------------------------|

|----------------------------------------------------------------------------|
|----------------------------------------------------------------------------|
|--7-6-7-7--7-9-11-9-7-6-6---2-2-11-11-13-14-13-11-9-9--7-6-7-7--4-6-7-6-4-2-|
|----------------------------------------------------------------------------|
|----------------------------------------------------------------------------|
|----------------------------------------------------------------------------|

Życzę wam miłego grania :) Prosta i szybka piosenka :)

Dodaj komentarz ...i/lub link do filmiku video

Zaloguj się do serwisu
Ostatnie komentarze
1.
zenco
2017-03-18 21:07
Fajna nuta. Dzięki :)
2.
oscarr
2013-08-01 12:35
dziękówa
3.
pyszora908
2011-05-01 12:10
super song dzięki
Wszelkie materiały i wypowiedzi zamieszczone na www.chords.pl są własnością ich autorów.