Zacznij systematycznie uczyć się grać na gitarze razem ze stroną Moja nauka - będziesz miał/miała do niej dostęp po zalogowaniu się w serwisie

Wierzę w Ciebie Panie (tab) - Piosenki Religijne

Dodał -a: elmariano,
Redaktor: Seba,
Pochodzi z: http://chomikuj.pl/fufi79/nuty/religijne/Wierze+w+Ciebie+Panie,115707338.pdf
Data publikacji: 2012-03-20 14:52
 
Moja nauka


Ups, problem :-/
Zaloguj się Mój śpiewnik
Głos 1:

E||-------------------------|
B||-------------------------|
G||*--------------0----0----|
D||*--2--2--2--4------------|
A||-------------------------|
E||-------------------------|


-----------------------|------------------------|-----------------------|
-----------------------|------------------------|-----------1--0--------|
-----0-----------------|--------------0----0----|-----0--2--------------|
--4-----4--0-----------|--2--2--2--4------------|--4--------------------|
--------------2--------|------------------------|-----------------------|
-----------------------|------------------------|-----------------------|

------------------------|-----------------------|--------------------------|
--1--0--1---------------|--0-----0--------------|--------------------------|
------------------------|-----2-----------------|--------0--------0--2-----|
-----------2--2----4----|-----------0--2--------|--2--4-----2--4--------4--|
------------------------|-----------------------|--------------------------|
------------------------|-----------------------|--------------------------|


-----------------------|-------------------------|-----------------------|
--------0--1--0--------|--1--0--1----------------|--0-----0--------------|
--0--2-----------------|-------------------------|-----2-----------------|
-----------------------|-----------2--2--4--4----|-----------0--2--------|
-----------------------|-------------------------|-----------------------|
-----------------------|-------------------------|-----------------------|

                                               4x
-------------------------|---------------------||-------------------||
-------------------------|---------------------||-------------------||
--------0--------0-------|--------------------*||-------------------||
--2--4-----2--4-----4----|--2-----------------*||--2----------------||
-------------------------|---------------------||-------------------||
-------------------------|---------------------||-------------------||


Głos 2:


E||---------------------|---------------------|
B||---0--------1--------|--3--------0----0----|
G||*--------------------|---------------------|
D||*--------------------|---------------------|
A||---------------------|---------------------|
E||---------------------|---------------------|


--------------------|---------------------|-----------------------|
--0--------1--------|--3----1----0--------|-----------1--0--1-----|
--------------------|---------------------|-----------------------|
--------------------|---------------------|--------------------2--|
--------------------|---------------------|-----------------------|
--------------------|---------------------|-----------------------|



------------------------|--------------------|--------------------|
------------0-----------|--------------------|--------------------|
---------------2--0-----|--0--------2--------|--0-----------------|
--2----4-------------4--|--------------------|-----------4--------|
------------------------|--------------------|--------------------|
------------------------|--------------------|--------------------|


-----------------------|-------------------------|--------------------|
-----------1--0--1-----|-------------0-----------|--------------------|
-----------------------|----------------2--0-----|--0--------2--------|
--------------------2--|--2--4--4-------------4--|--------------------|
-----------------------|-------------------------|--------------------|
-----------------------|-------------------------|--------------------|


                     4x
---------------------||-------------------||
---------------------||--0----------------||
--0-----------------*||-------------------||
--------------------*||-------------------||
---------------------||-------------------||
---------------------||-------------------||

Podkład basowy w tle:


C||----------------------|---------------------|
G||---0---------L--------|-----------0---------|
D||*--2----0-------------|--4--------0----4----|
A||*------------3--------|--5--------0---------|
E||----------------------|---------------------|
B||----------------------|---------------------|



---------------------|---------------------|--------------------|
--0---------L--------|--2------------------|--2-----------------|
--2----0-------------|--0----4----L--------|-----------4--------|
------------3--------|------------2--------|--0--------5--------|
---------------------|---------------------|--------------------|
---------------------|---------------------|--------------------|


--------------------|--------------------|--------------------|
--0--------L--------|--0-----------------|--4--------4--------|
-----------2--------|--2--------4--------|--5--------4--------|
--------------------|--3--------5--------|-----------2--------|
--3-----------------|--------------------|--------------------|
--------------------|--------------------|--------------------|



--------------------|---------------------|--------------------|
--2--------2--------|--0--------L---------|--0--------2--------|
-----------4--------|-----------2----0----|-----------0--------|
--0--------5--------|---------------------|--3-----------------|
--------------------|--3------------------|--------------------|
--------------------|---------------------|--------------------|


                       4x
-----------------------||---------------------||
--0--------------------||--0---------1--------||
--2-------------------*||--2----3----2--------||
-------2--------------*||---------------------||
------------0----------||-------1-------------||
-----------------------||---------------------||
Dodał: elmariano, 2012-03-20 14:52
Opracowania video z komentarzy

Dodaj komentarz ...i/lub link do filmiku video

Zaloguj się do serwisu