Zacznij systematycznie uczyć się grać na gitarze razem ze stroną Moja nauka - będziesz miał/miała do niej dostęp po zalogowaniu się w serwisie

Idzie mój Pan (tab) - Piosenki Religijne

Opracował -a: aniadoda5,
Dodał -a: aniadoda5,
Redaktor: Seba,
Pochodzi z: http://www.chords.pl/
Data publikacji: 2013-01-28 17:57
 
Moja nauka


Ups, problem :-/
Zaloguj się Mój śpiewnik
E|-----------------------------------|
B|--0-0-0--0-0-0--0-2-3-5-3-2-3-2-0--|
G|-----0------0----------------------|x 2
D|-----------------------------------|
A|-----------------------------------|
E|-----------------------------------


E|-----------------------------------|
B|--0-7-7-7-5-5-3-2-0-2-3-5-2-3-5-7--|
G|-----------------------------------|
D|-----------------------------------|
A|-----------------------------------|
E|-----------------------------------|


E|-----------------------------------|
B|--0-7-7-7-5-5-3-2-0-2-3-5-2-3-2-0--|
G|-----------------------------------|
D|-----------------------------------|
A|-----------------------------------|
E|-----------------------------------|

Dodaj komentarz ...i/lub link do filmiku video

Zaloguj się do serwisu
Ostatnie komentarze
1.
Funciek
2013-11-07 20:43
E|-----------------------------------| B|--0-0-0--0-0-0--0-2-3-5-3-2-3-2-0--| G|-----2------2----------------------|x 2 D|-----------------------------------| A|-----------------------------------| E|-----------------------------------| Chyba tak powinno być na początku :) Miłej nauki
2.
mapa999
2013-03-07 19:04
Dzięki szukałam tego
3.
aniadoda5
2013-01-28 20:18
Miłego grajkowania ;D
Wszelkie materiały i wypowiedzi zamieszczone na www.chords.pl są własnością ich autorów.