Zacznij systematycznie uczyć się grać na gitarze razem ze stroną Moja nauka - będziesz miał/miała do niej dostęp po zalogowaniu się w serwisie

O Jasnogórska - Piosenki Religijne

Opracował -a: rodzina123,
Redaktor: Miłosz,
Data publikacji: 2006-05-05 00:10
 
Moja nauka


Ups, problem :-/
Zaloguj się Mój śpiewnik
„   O  Jasnogórska   „    (  4/4  ) ( szybko )

I  gitara  akustyczna  -  akordy  ( bicie  na 6 uderzeń w takcie  )

e--0-------0---0-------0---0---0-----
h--0-------0---0-------0---0---0-----
g--1-------1---1-------1---1---1-----
d--2-------2---2-------2---2---2-----    bicie  np.  akordu   E
a--2-------2---2-------2---2---2-----
e--0-------0---0-------0---0---0-----
---x-------x--------x------x---------

Intro

       |    E     |    E    |    cis  |   cis   |
       |    E     |     E   |    H7   |  H7 ...

Zwrotka

        |    E    |    E    |    cis   |   cis   |
        |   fis   |   H7    |    E     |   E7    |
        |    A    |    A    |    E     |    E    |
        |   fis   |   fis   |    H7    |    H7 ...

powt.  (  w końcówce  -  akord  H7  gramy  2 x  dłużej   )

Refren

       |    E   |    E    |   fis    |   fis   |
       |   H7   |  H7     |    E     |   E7    |
       |  Cis7  |  Cis7   |   fis    |   fis   |
       |   H7   |   H7    |    E     |    E ...

II gitara  elektryczna  -  grała  tak  :

Intro

e-----------------------------------------------
h-----------------------------------------------
g---------9---9-9--------11B--11B-(11)-9--------
d--9---------------11--------------------11-----
a-----------------------------------------------
e-----------------------------------------------

e-----------------------------------------------
h-----------------------------12----12----------
g---------9--8/(9)--11--------14B---14B---------
d—9---------------------------------------------
a-----------------------------------------------
e-----------------------------------------------

Zwrotka

e--------------------------------------------------------
h--------5------------5-----------5------------5---------
g------4---4--------4---4-------6---6--------6---6-------
d----6-------6----6-------6---6-------6----6-------6-----
a--7------------7-----------4------------4---------------
e--------------------------------------------------------

e---------2--/--7----------------------------------------
h---------2--/----7----------12-----10-----9------9---9--
g--------------------8----------9------9-----9----7---7--
d----4-----------------9--\-------9------9--------6---6--
a--4-------------------9--\-----------------------7---7--
e-------------------------------------------------0---0--

e--------------------------------------------------------
h------5---5--5----------------9---9--9---10-10--9-------
g------6---6--6---7-7--6-------9---9--9----9--9--9-------
d------5---5--5---5-5--5-------9---9--9---11-11--9-------
a------0---0--0---0-0--0---------------------------------
e--------------------------------------------------------

e-------------------------------7-----9-H12-p9-----------
h------7---7--7---7-----------7-----x----------H12-\-----
g------6---6--6---6---------8------x---------------------
d------7---7--7---7-------9------------------------------
a--------------------------------------------------------
e--------------------------------------------------------

Wokal  wchodzi w refren  :  „  O  Jasno ... „

Refren  :

Gitara elektryczna  grała  akordy  barre  z  akcentem  na  2  (  reggae  )
z  zastosowaniem   techniki  arpeggio  !

Miłego  grania !
Mp 3  pokazowe  przygotowane !

Dodaj komentarz ...i/lub link do filmiku video

Zaloguj się do serwisu
Wszelkie materiały i wypowiedzi zamieszczone na www.chords.pl są własnością ich autorów.