Zacznij systematycznie uczyć się grać na gitarze razem ze stroną Moja nauka - będziesz miał/miała do niej dostęp po zalogowaniu się w serwisie

Panu Naszemu Pieśń grajcie - Piosenki Religijne

Opracował -a: cherti,
Pochodzi z: http://www.chords.pl
Data publikacji: 2005-06-29 08:26
 
Moja nauka


Ups, problem :-/
Zaloguj się Mój śpiewnik
Zwrotka: d, C, F, C, F, A, d /x2
Refren:  d, C, F, C, B, F, d /x2

Zwrotka:
powinno się grać jak na chwytach
E|--------------------------------------------------------------------------|
B|--------------------------------------------------------------------------|
G|--------------------------------------------------------------------------|
D|--------------------------------------------------------------------------|
A|-5--5-5-5-5-5-3-3--8--8--10-10-12-12-12----7-7-5---/----------------------|
E|-3--3-3-3-3-3-1-1--6--6--8--8--10-10-10-13-5-5-3--/--x2-------------------|

Refren:
E|--------------------------------------------------------------------------|
B|--------------------------------------------------------------------------|
G|--------------------------------------------------------------------------|
D|--------------------------------------------------------------------------|
A|-12--12-12-12-------12--12-10-8--8-8-8-10-10-12-12------------------------|
E|-10--10-10-10-13-13-10--10-8--6--6-6-6-8--8--10-10------------------------|

E|--------------------------------------------------------------------------|
B|--------------------------------------------------------------------------|
G|--------------------------------------------------------------------------|
D|--------------------------------------------------------------------------|
A|-12--12-12-12-------12--12-10-8--8-8-8-10-7-5--5--------------------------|
E|-10--10-10-10-13-13-10--10-8--6--6-6-6-8--5-3--3--------------------------|

Dodaj komentarz ...i/lub link do filmiku video

Zaloguj się do serwisu
Wszelkie materiały i wypowiedzi zamieszczone na www.chords.pl są własnością ich autorów.