Zacznij systematycznie uczyć się grać na gitarze razem ze stroną Moja nauka - będziesz miał/miała do niej dostęp po zalogowaniu się w serwisie

Przed Tobą stoję Panie - Piosenki Religijne

Opracował -a: matteo2,
Redaktor: Tomek Pietrzkowski,
Pochodzi z: http://www.chords.pl
Data publikacji: 2008-08-21 00:01
 
Moja nauka


Ups, problem :-/
Zaloguj się Mój śpiewnik
Baranki Boże - "Ofiarowanie"
===========================================

INTRO

e--------------------------------------
b--------------------------------------
g------2------2-------2------2-4^------ /x2
d--2h4--4--2h4--4--2h4-2--2h4----------
a--------------------------------------
E--------------------------------------

===========================================

VERSE

   F#m   D    A    E

e----2----2----0----0------------------
b----2----3----2----0------------------
g---2----2----2----1------------------- /x4
d-------0------------------------------
a------------0-------------------------
E--2--------------0--------------------

Przed Tobą stoję Panie
i ręce  wznoszę wzwyż.
Z serca przyjmij dar
Tak jak przyjmujesz chleb.

Przed Tobą stoję Panie
o jedno tylko proszę
życie przemień me
jak wino zmieniasz w chleb

===========================================

VERSE2/CHORUS

   F#m         D          A          E

e--2-2-xx-xx--2-2-xx-xx--0-0-xx-xx--0-0-xx-xx---
b--2-2-xx-xx--3-3-xx-xx--2-2-xx-xx--0-0-xx-xx---
g--2-2-xx-xx--2-2-xx-xx--2-2-xx-xx--1-1-xx-xx--- /x9
d--4-4-xx-xx--0-0-xx-xx--2-2-xx-xx--2-2-xx-xx---
a--4-4-xx-xx--0-0-xx-xx--0-0-xx-xx--2-2-xx-xx---
E--2-2-xx-xx--0-0-xx-xx--0-0-xx-xx--0-0-xx-xx---

Chcę miłość Twoją znać
jak smak dobrego chleba
i dzielić mogę tym
z uśmiechem życie brać.

Przed Tobą stoję dziś
o jedno tylko proszę
ofiarę przyjmij tę
ja grzeszny proszę: Weź!
Proszę weź panie weź

===========================================

OUTRO

e-----------------------------------2--
b-----------------------------------2--
g------2------2-------2------2-4^---2--
d--2h4--4--2h4--4--2h4-2--2h4-------4--
a-----------------------------------4--
E-----------------------------------2--

Dodaj komentarz ...i/lub link do filmiku video

Zaloguj się do serwisu
Wszelkie materiały i wypowiedzi zamieszczone na www.chords.pl są własnością ich autorów.