Zacznij systematycznie uczyć się grać na gitarze razem ze stroną Moja nauka - będziesz miał/miała do niej dostęp po zalogowaniu się w serwisie

Przybądźcie z nieba (Anielski orszak) - Piosenki Religijne

Opracował -a: zajop,
Redaktor: Tomek Pietrzkowski,
Pochodzi z: http://www.chords.pl
Data publikacji: 2006-08-23 00:01
 
Moja nauka


Ups, problem :-/
Zaloguj się Mój śpiewnik
Zwrotka:

|------------------------------------------------
|------------------------------------------------
|------------------------------------------------
|------------------------------------------------
|------3--2--3--0-------------0------------------
|--3-----------------3--1--3-----3--3------------
Przybądźcie z nieba na głos naszych modlitw

|------------------------------------------------
|------------------------------------------------
|------------------------------------------------
|------------------------------------------------
|------3--2--3--0-------------0------------------
|--3-----------------3--1--3-----3--3------------
Mieszkańcy chwały wszyscy święci Boży

|-------------------------------------------------
|-------------------------------------------------
|-------------------------------------------------
|-------------0--0--0-------------0--2--0---------
|------2--3-------------3--2--3-------------------
|--3----------------------------------------------
Z obłoków jasnych zejdźcie aniołowie

|--------------------------------------------------
|--------------------------------------------------
|--------------------------------------------------
|-------------0--0--0--2-----0--2--0---------------
|------2--3----------------3-------------3---------
|--3-----------------------------------------------
Z rzeszą zbawionych spieszcie na spotkanie

Refren:


|--------------------------------------------------
|--------------------------------------------------
|--------------------------------------------------
|------3--3--2--2--0--0--2-----0--0----------------
|--3----------------------------3------------------
|--------------------------------------------------
Anielski orszak niech twą duszę przyjmnie

|--------------------------------------------------
|--------------------------------------------------
|--------------------------------------------------
|------3--3--2--2--0--0--2-----0--0----------------
|--3----------------------------3------------------
|--------------------------------------------------
Uniesie z ziemi ku wyżynom nieba

|--------------------------------------------------
|--------------------------------------------------
|-------------0------------------------------------
|--0--2--3-----3--2--0--2-----0--2--0--------------
|-------------------------------3------------------
|--------------------------------------------------
A pieśń zbawionych niech ją zaprowadzi

|--------------------------------------------------
|--------------------------------------------------
|-------------0------------------------------------
|--0--2--3-----3--2--0-----0--2--0-----------------
|---------------------------3-------------3--------
|--------------------------------------------------
Aż przed oblicze Boga najwyższego

Dodaj komentarz ...i/lub link do filmiku video

Zaloguj się do serwisu
Wszelkie materiały i wypowiedzi zamieszczone na www.chords.pl są własnością ich autorów.