Zacznij systematycznie uczyć się grać na gitarze razem ze stroną Moja nauka - będziesz miał/miała do niej dostęp po zalogowaniu się w serwisie

Te Deum [Ciebie Boga wysławaiamy](tab) - Piosenki Religijne

Opracował -a: szatex,
Dodał -a: szatex,
Redaktor: Seba,
Pochodzi z: http://www.chords.pl
Data publikacji: 2011-12-29 10:04
 
Moja nauka


Ups, problem :-/
Zaloguj się Mój śpiewnik
Metrum: 5/4

Legenda:

x-- ósemka
x---- Ćwierćnuta


e|------------------------------ | ---------------------------- |
H|------------------------------ | ---------------------------- |
G|--0--0--0--0------------------ | ------------0--------------- |
D|--------------4--2--4----2---- | ---2--2--0-----4--2----0---- |
A|------------------------------ | 2--------------------------- |
E|------------------------------ | ---------------------------- |

e|------------------------------ | ---------------------------- |
H|--0--0--0--0--------1----0---- | 0--0--3--0-----0------------ |
G|--------------2--0------------ | ------------0-----2----0---- |
D|------------------------------ | ---------------------------- |
A|------------------------------ | ---------------------------- |
E|------------------------------ | ---------------------------- |

Dodaj komentarz ...i/lub link do filmiku video

Zaloguj się do serwisu
Wszelkie materiały i wypowiedzi zamieszczone na www.chords.pl są własnością ich autorów.