Zacznij systematycznie uczyć się grać na gitarze razem ze stroną Moja nauka - będziesz miał/miała do niej dostęp po zalogowaniu się w serwisie

Сóż Ci Jezu damy - Piosenki Religijne

Dodał -a: tomasz-dr,
Redaktor: Seba,
Pochodzi z: http://www.skrzeszew.pl/m/index.php?pokaz=listar
Data publikacji: 2013-02-14 20:27
 
Moja nauka


Ups, problem :-/
Zaloguj się Mój śpiewnik
F      B     g     C                  F
Cóż Ci Je-zu da-my za twych łask stru-mie-nie?

F        B       g     C                F
Z ser-ca Ci skła-da-my kor-ne dzięk-czy-nie-nie.

a            B            g           F
Pa-nie nasz, kró-luj nam! Bo-że nasz, kró-luj nam!

F        B        g    g       C     F
Po-przez wiecz-ny czas kró-luj Je-zu nam!

Takt na 4/4 "-"= ósemka
E --------|--------|--------|--------|--------|--------|--------|--------|
H --------|--------|--------|--------|--------|--------|--------|--------|
G 2---3-2-|0-------|------0-|2-------|2---3-2-|0-------|------0-|--------|
D --3-----|----0---|2-0-----|----3---|--3-----|----0---|2-0-----|3---3---|
A --------|--------|----3---|--------|--------|--------|----3---|--------|
E --------|--------|--------|--------|--------|--------|--------|--------|

E --------|--------|--------|--------|--------|--------|--------|--------|
H 1-------|3--1----|--------|1-------|--------|--------|--------|--------|
G ---32---|----3---|3--20---|---32---|2---3-2-|0-------|0-----0-|--------|
D --------|--------|--------|--------|--3-----|--------|--0-2---|3-------|
A --------|--------|--------|--------|--------|--------|--------|--------|
E --------|--------|--------|--------|--------|--------|--------|--------|

To jest w F dur. Można w C dur i wtedy chwyty odpowiednio
C F d G C
C F d G C
e F d C
C F d d G C
Jednak w F dur chwyty nie są aż tak trudne.

Dodaj komentarz ...i/lub link do filmiku video

Zaloguj się do serwisu
Ostatnie komentarze
1.
k_rzadkowska
2013-03-07 19:52
jakie jest bicie??????
Wszelkie materiały i wypowiedzi zamieszczone na www.chords.pl są własnością ich autorów.