Zacznij systematycznie uczyć się grać na gitarze razem ze stroną Moja nauka - będziesz miał/miała do niej dostęp po zalogowaniu się w serwisie

Zjednoczeni w duchu - Piosenki Religijne

Opracował -a: cherti,
Pochodzi z: http://www.chords.pl
Data publikacji: 2005-06-29 08:25
 
Moja nauka


Ups, problem :-/
Zaloguj się Mój śpiewnik
Zwrotka:

E|---------------------------------------------------------------------------|
B|---------------------------------------------------------------------------|
G|---------------------------------------------------------------------------|
D|---------------------------------------------------------------------------|
A|---------------------------7-5-3-5-3-0---0---0-0-7-5-5-3-5-3-0---0-0-0-3-0-|
E|-0-3-5-3-5-8--0-3-5-3-5--5-------------3---3-------------------3-----------|


E|---------------------------------------------------------------------------|
B|---------------------------------------------------------------------------|
G|---------------------------------------------------------------------------|
D|---------------------------------------------------------------------------|
A|-----------------------7-5--3-5-7-5-3-0-5-3-0---0--------------------------|
E|-0-3-5-5-3-5-8-0-3-5-5------------------------3----------------------------|

Dodaj komentarz ...i/lub link do filmiku video

Zaloguj się do serwisu
Ostatnie komentarze
1.
marika1991
2006-07-21 20:07
4. niechaj chwala brzmi ojcu, ktory stworzyl ten swiat niechaj chwala brzmi ojcu, ktory stworzyl ten swiat chwala tez chrystusowi, ktory synem jego jest i duchowi tez chwala, ktory jednoczy nas i duchowi tez ktory laczy nas
2.
Aurelka
2005-07-27 16:51
lub inaczej: e 1. Zjednoczeni w Duchu, zjednoczeni w Nim, a e Zjednoczeni w Duchu, zjednoczeni w Nim, a e Módlmy się, aby jedność była odnowiona w nas, C e a Aby świat cały poznał uczniów Chrystusa w nas, e a e Aby świat cały ujrzał miłość w nas. 2.Wraz z innymi pójdziemy, podaj mi swoją dłoń, Wraz z innymi pójdziemy, podaj mi swoją dłoń. Wszystkim głosić będziemy tę radosną dla nas wieść, Że nasz Pan kroczy z nami, że nasz Pan z nami jest, Że nasz Pan zawsze z nami wszędzie jest. 3.Chcemy razem pracować, chcemy złączyć swój trud, Chcemy razem pracować, chcemy złączyć swój trud. By nie stracić godności, którą Pan obdarzył nas, Aby strzec ludzką duszę, aby strzec dumę swą, Żeby człowiek zachował godność swą. :)
Wszelkie materiały i wypowiedzi zamieszczone na www.chords.pl są własnością ich autorów.