Zacznij systematycznie uczyć się grać na gitarze razem ze stroną Moja nauka - będziesz miał/miała do niej dostęp po zalogowaniu się w serwisie

Niewidzialna armia cz. II - Armia

Opracował -a: egeszege,
Redaktor: *LEGEND*,
Pochodzi z: http://www.chords.pl
Data publikacji: 2008-08-01 14:01
 
Moja nauka


Ups, problem :-/
Zaloguj się Mój śpiewnik
     E|-------------------------|
     B|-------------------------|
     G|-------------------------|
     D|--10--10--8--10--11--10--|
     A|--10--10--8--10--11--10--|
     D|--10--10--8--10--11--10--|

     Za ostatnim razem:


     E|---------------------------|
     B|---------------------------|
     G|---------------------------|
     D|--10--10--8--10--11--10--8-|
     A|--10--10--8--10--11--10--8-|
     D|--10--10--8--10--11--10--8-|


     I zakończenie:


      E|---------------------------|
      B|---------------------------|
      G|---------------------------|
      D|--8--10--11--8--10--11--8--|
      A|--8--10--11--8--10--11--8--|
      D|--8--10--11--8--10--11--8--|

Dodaj komentarz ...i/lub link do filmiku video

Zaloguj się do serwisu
Wszelkie materiały i wypowiedzi zamieszczone na www.chords.pl są własnością ich autorów.