Zacznij systematycznie uczyć się grać na gitarze razem ze stroną Moja nauka - będziesz miał/miała do niej dostęp po zalogowaniu się w serwisie

Nic już nie przeszkodzi - Armia

Opracował -a: egeszege,
Redaktor: Dyziu,
Pochodzi z: http://www.chords.pl
Data publikacji: 2009-07-05 00:53, Poprawiono 2009-07-05 11:53
 
Moja nauka


Ups, problem :-/
Zaloguj się Mój śpiewnik
Główny riff:

E|---------------------------------|
B|---------------------------------|
G|---------------------------------|
D|-0-0-0-0-3-3-3-3-2-2-2-2-3-2-3-2-|
A|-0-0-0-0-3-3-3-3-2-2-2-2-3-2-3-2-|
D|-0-0-0-0-3-3-3-3-2-2-2-2-3-2-3-2-|

Przejście:

E|---------|
B|---------|
G|---------|
D|-7-3-6-2-|
A|-7-3-6-2-|
D|-7-3-6-2-|

Dodaj komentarz ...i/lub link do filmiku video

Zaloguj się do serwisu
Wszelkie materiały i wypowiedzi zamieszczone na www.chords.pl są własnością ich autorów.