Zacznij systematycznie uczyć się grać na gitarze razem ze stroną Moja nauka - będziesz miał/miała do niej dostęp po zalogowaniu się w serwisie

Przebłysk - Armia

Opracował -a: biskup,
Pochodzi z: http://www.chords.pl
Data publikacji: 2005-02-24 07:14
 
Moja nauka


Ups, problem :-/
Zaloguj się Mój śpiewnik
zwrotka:
E-----------------------------------------
H-----------------------------------------
G-----------------------------------------
D--5-5-5--2------------9----10----5-4-3---
A--5-5-5--2------------9----10----5-4-3---
E--3-3-3--0------------7-----8----3-2-1---

refren:
E-----------------------------------------
H-----------------------------------------
G-----------------------------------------
D--7-------------------9--10----5-4-3-----
A--7-------------------9--10----5-4-3-----
E--5-------------------7---8----3-2-1-----
   Światło...


wyjście z refrenu:
E-----------------------------------------
H-----------------------------------------
G-----------------------------------------
D--9---10-10-10--9--14--12---9--8-7-5--2--
A--9---10-10-10--9--14--12---9--8-7-5--2--
E--7----8--8--8--7--12--10---7--6-5-3--0--

bridge:
E--------------------------
H--------------------------
G--------------------------
D--9/10---12-----9-----14--
A--9/10---12-----9-----14--
E--7/8----10-----7-----12--

E----------------------------------------
H----------------------------------------
G----------------------------------------
D--8-8-8--8-8--8-8-8--8-8-9--------------
A--8-8-8--8-8--8-8-8--8-8-9--------------
E--6-6-6--6-6--6-6-6--6-6-7--------------

E----------------------------------------
H----------------------------------------
G----------------------------------------
D--2--5--7----8-8-8--8-8--8-8-8--8-8-9---
A--2--5--7----8-8-8--8-8--8-8-8--8-8-9---
E--0--3--5----6-6-6--6-6--6-6-6--6-6-7---
"niech Cię wspiera..."

gdy wchodzi waltornia:
E----------------------------------------------------------------
H----------------------------------------------------------------
G----------------------------------------------------------------
D--2-5-7--8-8-8--8-8--8-8-8--8-8--2---7--8-8-8--8-8--8-8-8--8-8--
A--2-5-7--8-8-8--8-8--8-8-8--8-8--2---7--8-8-8--8-8--8-8-8--8-8--
E--0-3-5--6-6-6--6-6--6-6-6--6-6--0---5--6-6-6--6-6--6-6-6--6-6--

za ostatnim razem:
E------------------
H------------------
G------------------
D--14--14--14--14--
A--14--14--14--14--
E--12--12--12--12--

Dodaj komentarz ...i/lub link do filmiku video

Zaloguj się do serwisu
Wszelkie materiały i wypowiedzi zamieszczone na www.chords.pl są własnością ich autorów.