Zacznij systematycznie uczyć się grać na gitarze razem ze stroną Moja nauka - będziesz miał/miała do niej dostęp po zalogowaniu się w serwisie

Hej szara wiara - Armia

Opracował -a: pablo_siersza,
Dodał -a: pablo_siersza,
Redaktor: Seba,
Pochodzi z: http://www.chords.pl
Data publikacji: 2012-04-23 19:41
 
Moja nauka


Ups, problem :-/
Zaloguj się Mój śpiewnik
refren: F/E/F/E/F/E/F/E H

E|------------------------------|
H|------------------------------|
G|------------------------------|
D|---10-9-10-9-10-9-10-9--------|
A|----8-7--8-7--8-7--8-7---9----|
E|-------------------------7----|
    "Hej! Szara wiara!"

zwrotka: Gis A Cis

E|---------------|
H|---------------|
G|---------------|
D|-----------7---|
A|---6---7---4---|
E|---4---5-------|

Dodaj komentarz ...i/lub link do filmiku video

Zaloguj się do serwisu
Wszelkie materiały i wypowiedzi zamieszczone na www.chords.pl są własnością ich autorów.