Zacznij systematycznie uczyć się grać na gitarze razem ze stroną Moja nauka - będziesz miał/miała do niej dostęp po zalogowaniu się w serwisie

Buraki, kapusta i sól - Armia

Opracował -a: biskup,
Pochodzi z: http://www.chords.pl
Data publikacji: 2005-02-22 00:01
 
Moja nauka


Ups, problem :-/
Zaloguj się Mój śpiewnik
wejście:
E--------
H--3-----
G--2-----
D--0-----
A--0-----
D--0-----

wejście do zwrotki:
E---------------------------------------------
H--6-----------------------------8------------
G--5-----------------------------7------------
D--3-----------------------------5------------
A--3-----------------------------5------------
D--3-----------------------------5------------
   ta historia jest...  jak mało co

z przesterem:
E----------------------------------------------------
H----------------------------------------------------
G----------------------------------------------------
D--3-----------------------------5----------0-5------
A--3-----------------------------5----------0-5------
D--3-----------------------------5----------0-5------
   ja uciekłem...            140 raz

przejście:
E-------------- I ------------- I ---------------- I ------------------
H-------------- I ------------- I ---------------- I ------------------
G-------------- I ------------- I ---------------- I ------------------
D--3----5--0--- I -3----5--0--- I -3----5/8-7-5--- I -3----5/8-7-5-----
A--3----5--0--- I -3----5--0--- I -3----5/8-7-5--- I -3----5/8-7-5-----
D--3----5--0--- I -3----5--0--- I -3----5/8-7-5--- I -3----5/8-7-5-----

przejście 2 i końcówka:
E-----------------------/10---------
H--\3-------------------/10---------
G--\2-------------------/10---------
D---0--------------------0----------
A---0--------------------0----------
D-----------------------------------
(dwie gitary grają to samo z lekkim przesunięciem w czasie)

E----------------------------
H----------------------------
G----------------------------
D--3---------2---------5-----
A--3---------2---------5-----
D--3---------2---------5-----
   buraki,   kapusta i sól

Dodaj komentarz ...i/lub link do filmiku video

Zaloguj się do serwisu
Ostatnie komentarze
1.
Rectifier
2007-10-25 23:50
Co jest Panie Szkrabusiek - to zwykłe akordy F A G na 3, 7 i 5tym progu. A ten bajer na zakończeniu to akord Dmol grany na przemian jako "zwykły" Dmol, i o oktawę wyższy na 12 progu . Wszystko bez użycia jakichkolwiek "przyrządów wydłużających palce".
2.
Rectifier
2007-10-23 19:37
Na zakonczeniu jest akord F-A-G, a nie F- E-G.A outro to Dmol na progu 0 przenoszony na próg 12(na wyższą oktawę).Oczywiście to tylko moje zdanie, więc nic pewnego.Poza tym wszystko w moim mniemaniu "gra".
3.
szkrabusiek
2005-05-02 13:41
masakra!! trzeba palce mieć strasznie długie, zeby takie riffy rgrać... :(
Wszelkie materiały i wypowiedzi zamieszczone na www.chords.pl są własnością ich autorów.