Zacznij systematycznie uczyć się grać na gitarze razem ze stroną Moja nauka - będziesz miał/miała do niej dostęp po zalogowaniu się w serwisie

Radio NRD - Armia

Opracował -a: biskup,
Pochodzi z: http://www.chords.pl
Data publikacji: 2005-02-24 07:15
 
Moja nauka


Ups, problem :-/
Zaloguj się Mój śpiewnik
riff główny (zwrotka):
E-----------------------------
H-----------------------------
G-----------7-----------------
D-5-5-5-0-5-7-0--3-3-3-2-1----
A-5-5-5-0-5-5-0--3-3-3-2-1----
D-5-5-5-0-5---0--3-3-3-2-1----

refren:
E-----------------------------
H-----------------------------
G-----------------------------
D-7---------------/5-/5-------
A-7---------------/5-/5-------
D-7---------------/5-/5-------
  NRD              całe niebo

"ubogi na duchu...":
E------------------------------
H------------------------------
G------------------------------
D--5-------------0---4---------
A--5-------------0---4---------
D--5-------------0---4---------

Dodaj komentarz ...i/lub link do filmiku video

Zaloguj się do serwisu
Ostatnie komentarze
1.
Rectifier
2007-10-24 00:31
Wydaje mi się, że w zwrotce nie ma na ostatniej pozycji Dis tylko D.
Wszelkie materiały i wypowiedzi zamieszczone na www.chords.pl są własnością ich autorów.