Zacznij systematycznie uczyć się grać na gitarze razem ze stroną Moja nauka - będziesz miał/miała do niej dostęp po zalogowaniu się w serwisie

Podróż na wschód - Armia

Opracował -a: biskup,
Pochodzi z: http://www.chords.pl
Data publikacji: 2005-02-24 07:14
 
Moja nauka


Ups, problem :-/
Zaloguj się Mój śpiewnik
wejście:
E--------------------------------------------------------
H--------------------------------------------------------
G--------------------------------------------------------
D-11-11-11-11-11--12-12-12-12-12--5-5-5-5-5--7-7-7-7-7---
A--0--0--0--0--0---0--0--0--0--0--0-0-0-0-0--0-0-0-0-0---
E--------------------------------------------------------

zwrotka:
E----------------------------------------------
H----------------------------------------------
G----------------------------------------------
D---7----------6---6------7----------6---6-----
A---7----------6---6------7----------6---6-----
E---5----------4-0-4-0----5----------4-0-4-0---

"...piękni i...";
E--------
H--------
G--------
D---12---
A---12---
E---10---

bridge (po "...podróż..."):
E---------------------------------------
H---------------------------------------
G---------------------------------------
D---7----------6---6------12-12-12-13---
A---7----------6---6------12-12-12-13---
E---5----------4-0-4-0----10-10-10-11---

wyjście:
E-------------------------------
H-------------------------------
G-------------------------------
D-12-----13-----12-----5-----7--
A-12-----13-----12-----5-----7--
E-10-----11-----10-----3-----5--

Dodaj komentarz ...i/lub link do filmiku video

Zaloguj się do serwisu
Ostatnie komentarze
1.
runelord
2008-05-14 20:03
zwrotkę i refren można grać: A E G D
2.
runelord
2008-05-14 20:02
zwrotkę i refren można grać: A E G D
Wszelkie materiały i wypowiedzi zamieszczone na www.chords.pl są własnością ich autorów.