Zacznij systematycznie uczyć się grać na gitarze razem ze stroną Moja nauka - będziesz miał/miała do niej dostęp po zalogowaniu się w serwisie

On jest tu, on żyje - Armia

Opracował -a: biskup,
Pochodzi z: http://www.chords.pl
Data publikacji: 2005-02-22 00:04
 
Moja nauka


Ups, problem :-/
Zaloguj się Mój śpiewnik
Riff1 (distortion)

E--||---------------------------------|---------------------------|--------
B--||*--------------------------------|---------------------------|--------
G--||---------------------------------|---------------------------|--------
D--||---------------------------------|---------------------------|--------
A--||*-\\\\-0-0--0-0--0-0--0-0--3--3--|-2-2--2-2--2-2--2-2--5--5--|-3-3--3-
D--||--\\\\-0-0--0-0--0-0--0-0--3--3--|-2-2--2-2--2-2--2-2--5--5--|-3-3--3-

                                                       Riff2 (czysto)

E|-------------------|----------------------------||-||-------3---
B|-------------------|---------------------------*||-||*-----3----
G|-------------------|----------------------------||-||-----2-----
D|-------------------|----------------------------||-||----0------
A|-3--3-3--3-3--7--7-|-5-5--5-5--5-5--5-5--8--7--*||-||*--0-------
D|-3--3-3--3-3--7--7-|-5-5--5-5--5-5--5-5--8--7---||-||--0--------

                                                  Outro
E-|------2----|------0----|------0----------||--||-------9--||
B-|-----3-----|-----3-----|-----2-h-3--3---*||--||-----10---||
G-|----2------|----2------|----2------------||--||----10----||
D-|---0-------|---0-------|---0-------------||--||---0------||
A-|--0--------|--0--------|--0-------------*||--||--0-------||
D-|-0---------|-0---------|-0---------------||--||-0--------||

Dodaj komentarz ...i/lub link do filmiku video

Zaloguj się do serwisu
Wszelkie materiały i wypowiedzi zamieszczone na www.chords.pl są własnością ich autorów.