Zacznij systematycznie uczyć się grać na gitarze razem ze stroną Moja nauka - będziesz miał/miała do niej dostęp po zalogowaniu się w serwisie

Hejszarawiara - Armia

Opracował -a: biskup,
Pochodzi z: http://www.chords.pl
Data publikacji: 2005-02-22 00:02
 
Moja nauka


Ups, problem :-/
Zaloguj się Mój śpiewnik
wejście i refren:

     C H C H C H C H  G
E|------------------------------------|
H|------------------------------------|
G|---5-4-5-4-5-4-5-4------------------|
D|---5-4-5-4-5-4-5-4--5-5-5-5-5-5-5-5-|
A|---3-2-3-2-3-2-3-2--5-5-5-5-5-5-5-5-|
E|--------------------3-3-3-3-3-3-3-3-|

                     Hej szarawiara!

zwrotka:
     E          F       C
E|------------------------------------|
H|------------------------------------|
G|--------------------5-5-5-5-5-5-5-5-|
D|--2-2-2-2--3-3-3-3--5-5-5-5-5-5-5-5-|
A|--2-2-2-2--3-3-3-3--3-3-3-3-3-3-3-3-|
E|--0-0-0-0--1-1-1-1------------------|

Dodaj komentarz ...i/lub link do filmiku video

Zaloguj się do serwisu
Wszelkie materiały i wypowiedzi zamieszczone na www.chords.pl są własnością ich autorów.