Zacznij systematycznie uczyć się grać na gitarze razem ze stroną Moja nauka - będziesz miał/miała do niej dostęp po zalogowaniu się w serwisie

Jeżeli - Armia

Opracował -a: biskup,
Pochodzi z: http://www.chords.pl
Data publikacji: 2005-02-22 00:03
 
Moja nauka


Ups, problem :-/
Zaloguj się Mój śpiewnik
wejście*:
E-----------------------------------------------------------
H-----------------------------------------------------------
G---------------5-5-5-5-5-7--4-4-4-4-4-5---4-4-4-4-x-x-x-x-- x4
D--7-7-7-7-7-5--5-5-5-5-5-7--4-4-4-4-4-5---4-4-4-4-x-x-x-x--
A--7-7-7-7-7-5--3-3-3-3-3-5--2-2-2-2-2-3---2-2-2-2-x-x-x-x--
E--5-5-5-5-5-3----------------------------------------------

  Jeżeli nam               zabraknie sił
E-----------------------------------------------------------
H-----------------------------------------------------------
G---------------5-5-5-5-5-7--4-4-4-4-4-5---4-4-4-4-x-x-x-x-- x2
D--7-7-7-7-7-5--5-5-5-5-5-7--4-4-4-4-4-5---4-4-4-4-x-x-x-x--
A--7-7-7-7-7-5--3-3-3-3-3-5--2-2-2-2-2-3---2-2-2-2-x-x-x-x--
E--5-5-5-5-5-3----------------------------------------------

  Zostaną jeszcze               morze i wiatr
E-----------------------------------------------------------
H-----------------------------------------------------------
G-----------------5-5-5-5-5-7--4-4-4-4-4-5--4-4-4-4-x-x-x-x- x2
D--7-7-7-7-7-5----5-5-5-5-5-7--4-4-4-4-4-5--4-4-4-4-x-x-x-x-
A--7-7-7-7-7-5----3-3-3-3-3-5--2-2-2-2-2-3--2-2-2-2-x-x-x-x-
E--5-5-5-5-5-3----------------------------------------------

                                  Nadejdzie nasz czas...
E----------------------------------------------------------------
H----------------------------------------------------------------
G---------------------------------9-9-9-9-9-9-9-9-9-9-9-9-9-9-9-9
D-7-7-7-7-7-7-7-7-7-7-7-7-7-7-7-7-9-9-9-9-9-9-9-9-9-9-9-9-9-9-9-9
A-7-7-7-7-7-7-7-7-7-7-7-7-7-7-7-7-7-7-7-7-7-7-7-7-7-7-7-7-7-7-7-7
E-5-5-5-5-5-5-5-5-5-5-5-5-5-5-5-5--------------------------------

E----------------------------------------------------------------
H----------------------------------------------------------------
G---------------------------------9-9-9-9-9-9-9-9-7-7-7-7-7-7-7-7
D-7-7-7-7-7-7-7-7-7-7-7-7-7-7-7-7-9-9-9-9-9-9-9-9-7-7-7-7-7-7-7-7
A-7-7-7-7-7-7-7-7-7-7-7-7-7-7-7-7-7-7-7-7-7-7-7-7-5-5-5-5-5-5-5-5
E-5-5-5-5-5-5-5-5-5-5-5-5-5-5-5-5--------------------------------

E----------------------------------------------------------------
H----------------------------------------------------------------
G---------------------------------9-9-9-9-9-9-9-9-9-9-9-9-9-9-9-9
D-7-7-7-7-7-7-7-7-7-7-7-7-7-7-7-7-9-9-9-9-9-9-9-9-9-9-9-9-9-9-9-9
A-7-7-7-7-7-7-7-7-7-7-7-7-7-7-7-7-7-7-7-7-7-7-7-7-7-7-7-7-7-7-7-7
E-5-5-5-5-5-5-5-5-5-5-5-5-5-5-5-5--------------------------------

                                  nadejdzie nasz czas...
E----------------------------------------------------------------
H----------------------------------------------------------------
G---------------------------------9-9-9-9-9-9-9-9-7-7-7-7-x-x-x-x
D-7-7-7-7-7-7-7-7-7-7-7-7-7-7-7-7-9-9-9-9-9-9-9-9-7-7-7-7-x-x-x-x
A-7-7-7-7-7-7-7-7-7-7-7-7-7-7-7-7-7-7-7-7-7-7-7-7-5-5-5-5-x-x-x-x
E-5-5-5-5-5-5-5-5-5-5-5-5-5-5-5-5--------------------------------

 wejście*: x2

       Jeżeli nam...

       Nadejdzie nasz czas...

 wejście*: x2 - na koniec

Dodaj komentarz ...i/lub link do filmiku video

Zaloguj się do serwisu
Ostatnie komentarze
1.
punkzwoodstocku
2010-08-30 11:29
Super
2.
Rectifier
2007-10-26 00:50
Przez zespół wykonywany jest niżej; Zwrotka; Fis E A H Gis A Gis A Refren; Fis Cis Fis Cis H
Wszelkie materiały i wypowiedzi zamieszczone na www.chords.pl są własnością ich autorów.