Zacznij systematycznie uczyć się grać na gitarze razem ze stroną Moja nauka - będziesz miał/miała do niej dostęp po zalogowaniu się w serwisie

Duch wieje przez świat - Armia

Opracował -a: biskup,
Pochodzi z: http://www.chords.pl
Data publikacji: 2005-02-22 00:02
 
Moja nauka


Ups, problem :-/
Zaloguj się Mój śpiewnik
Wejście:

E---------------------------------------------------------
H---------------------------------------------------------
G---------------------------------------------------------
D---4--7--4--3--5--10 -4-7-4----4--7--4--3--5--10--4-7-4--
A---4--7--4--3--5--10--4-7-4----4--7--4--3--5--10--4-7-4--
D---4--7--4--3--5--10--4-7-4----4--7--4--3--5--10--4-7-4--

Zwrotka:

E------------------------------------------
H------------------------------------------
G------------------------------------------
D--4---3-x-x-x--3-x-x-x--3-x-x-x--4--7--4--
A--4---3-x-x-x--3-x-x-x--3-x-x-x--4--7--4--
D--4---3-x-x-x--3-x-x-x--3-x-x-x--4--7--4--

ostatni takt zwrotki:

E----------------------------------------
H----------------------------------------
G----------------------------------------
D--4---3-x-x-x--3-x-x-x--3-x-x-x--4-3-2--
A--4---3-x-x-x--3-x-x-x--3-x-x-x--4-3-2--
D--4---3-x-x-x--3-x-x-x--3-x-x-x--4-3-2--

Refren:

E-----------------               -------------------------------------
H-----------------               -------------------------------------
G-----------------  za 4 razem   -------------------------------------
D---0---3---4-3-2-               -0---3---4-3-2----8-8-8-8--7-7-7-7---
A---0---3---4-3-2-               -0---3---4-3-2----8-8-8-8--7-7-7-7---
D---0---3---4-3-2-               -0---3---4-3-2----8-8-8-8--7-7-7-7---

Dodaj komentarz ...i/lub link do filmiku video

Zaloguj się do serwisu
Wszelkie materiały i wypowiedzi zamieszczone na www.chords.pl są własnością ich autorów.