Zacznij systematycznie uczyć się grać na gitarze razem ze stroną Moja nauka - będziesz miał/miała do niej dostęp po zalogowaniu się w serwisie

Święto rewolucji - Armia

Opracował -a: pablo_siersza,
Dodał -a: pablo_siersza,
Redaktor: Seba,
Pochodzi z: http://www.chords.pl
Data publikacji: 2012-04-24 07:48
 
Moja nauka


Ups, problem :-/
Zaloguj się Mój śpiewnik
intro:
       D E F   G A B
E:||-----------------------------------|
H:||-----------------------------------|
G:||-----------------------------------|
D:||---7-777-777-9-10------------------|
A:||---5-555-555-7-8-------------------|
E:||-------------------3-333-333-5-6---| x3

       D E F   B C
E:||-----------------------------------------|
H:||-----------------------------------------|
G:||-----------------------------------------|
D:||---7-777-777-9-10-------------55555555---|
A:||---5-555-555-7-8---88888888---33333333---|
E:||-------------------66666666--------------|

zwrotka: Cis/D/Cis/D/Cis/D/Cis/D Fis A

E:||-----------------------------------|
H:||-----------------------------------|
G:||-----------------------------------|
D:||---6/7/6/7/6/7/6/7-----------------|
A:||---4/5/4/5/4/5/4/5-444444--777777--|
E:||-------------------222222--555555--|

refren: D E A

E:||--------------------------------|
H:||--------------------------------|
G:||--------------------------------|
D:||---77777777-99999999------------|
A:||---55555555-77777777-77777777---|
E:||---------------------55555555---|

przejście:
           D B G
E:||--------------------------|
H:||--------------------------|
G:||--------------------------|
D:||---7-777777-1-111---------|
A:||---5-555555-1-111-5-555---|
E:||------------------3-333---| x3

          B Cis
E:||-------------------------|
H:||-------------------------|
G:||-------------------------|
D:||--------------55555555---|
A:||---88888888---33333333---|
E:||---66666666--------------|

outro: H E Fis G Gis A B H

Dodaj komentarz ...i/lub link do filmiku video

Zaloguj się do serwisu
Wszelkie materiały i wypowiedzi zamieszczone na www.chords.pl są własnością ich autorów.