Zacznij systematycznie uczyć się grać na gitarze razem ze stroną Moja nauka - będziesz miał/miała do niej dostęp po zalogowaniu się w serwisie

Nino łeno - Armia

Opracował -a: biskup,
Pochodzi z: http://www.chords.pl
Data publikacji: 2005-02-22 00:03
 
Moja nauka


Ups, problem :-/
Zaloguj się Mój śpiewnik
Przez cały utwór:

E----------------
H----------------
G----------------
D--0----3----5---
A--0----3----5---
D--0----3----5---

w refrenie łagodnie, w zwrotce żywiej

druga gitara:
E-----------------
H--0-1---/3-1-----
G------2------2---
D-----------------
A-----------------
D-----------------

Dodaj komentarz ...i/lub link do filmiku video

Zaloguj się do serwisu
Wszelkie materiały i wypowiedzi zamieszczone na www.chords.pl są własnością ich autorów.