Zacznij systematycznie uczyć się grać na gitarze razem ze stroną Moja nauka - będziesz miał/miała do niej dostęp po zalogowaniu się w serwisie

Dla każdej samotnej godziny - Armia

Opracował -a: barondyfri,
Redaktor: Tomek Pietrzkowski,
Pochodzi z: http://www.chords.pl
Data publikacji: 2007-02-20 00:16
 
Moja nauka


Ups, problem :-/
Zaloguj się Mój śpiewnik
Utwór ten należy grać kostkując na zmianę od góry i od dołu.
Najpierw pierwszy kawałek, który leci prawie przez całą piosenkę:

E|----3-3-3-3-3-3-|
B|---3-3-3-3-3-3--|
G|--0-0-0-0-0-0---|  x2
D|-0-0-0-0-0-0----|
A|----------------|
E|----------------|


E|----2-2-2-2-2-2-|
B|---0-0-0-0-0-0--|
G|--0-0-0-0-0-0---|  x2
D|-0-0-0-0-0-0----|
A|----------------|
E|----------------|

Następnie przy końcowce gramy tak:

E|----4-4-4-4-4-4-|
B|---3-3-3-3-3-3--|
G|--0-0-0-0-0-0---|  x2
D|-0-0-0-0-0-0----|
A|----------------|
E|----------------|


E|----3-3-3-3-3-3-|
B|---0-0-0-0-0-0--|
G|--0-0-0-0-0-0---|  x2
D|-0-0-0-0-0-0----|
A|----------------|
E|----------------|

E|----3-----------|
B|---0------------|
G|--0-------------|
D|-0--------------|
A|----------------|
E|----------------|

Dodaj komentarz ...i/lub link do filmiku video

Zaloguj się do serwisu
Wszelkie materiały i wypowiedzi zamieszczone na www.chords.pl są własnością ich autorów.