Zacznij systematycznie uczyć się grać na gitarze razem ze stroną Moja nauka - będziesz miał/miała do niej dostęp po zalogowaniu się w serwisie

Niewidzialna armia II - Armia

Opracował -a: pablo_siersza,
Dodał -a: pablo_siersza,
Redaktor: Seba,
Pochodzi z: http://www.chords.pl
Data publikacji: 2012-04-29 10:49
 
Moja nauka


Ups, problem :-/
Zaloguj się Mój śpiewnik
pierwszy riff: Dis E Fis G

E:|-----------------|
H:|-----------------|
G:|-----------------|
D:|---8--9--11-12---|
A:|---6--7--9--10---|
E:|-----------------|


drugi riff: H A H C A
E:|----------------------|
H:|----------------------|
G:|----------------------|
D:|---4-444-44-2-4-5-2---|
A:|---2-222-22-0-2-3-0---|
E:|----------------------| x3

E:|---------------------------|
H:|---------------------------|
G:|---------------------------|
D:|---4-444-44-2-4-5-222222---|
A:|---2-222-22-0-2-3-000000---|
E:|---------------------------|


outro: A H C A H C H
E:|---------------------|
H:|---------------------|
G:|---------------------|
D:|---2-4-5--2-4-5--0---|
A:|---0-2-3--0-2-3--2---|
E:|---------------------|

Dodaj komentarz ...i/lub link do filmiku video

Zaloguj się do serwisu
Wszelkie materiały i wypowiedzi zamieszczone na www.chords.pl są własnością ich autorów.