Zacznij systematycznie uczyć się grać na gitarze razem ze stroną Moja nauka - będziesz miał/miała do niej dostęp po zalogowaniu się w serwisie

W krainie smoków - Armia

Opracował -a: karol32768,
Redaktor: Tomek Pietrzkowski,
Data publikacji: 2007-01-13 01:56
 
Moja nauka


Ups, problem :-/
Zaloguj się Mój śpiewnik
Wejście:

Eb|-----------------------------------------------------------------------|
Bb|-----------------------------------------------------------------------|
Gb|-----------------------------------------------------------------------|
Db|-5/6\5-4-3-4-3-4-3-4-5-------------------------------------------------|
Ab|-5/6\5-4-3-4-3-4-3-4-5-------------------------------------------------|
Db|-5/6\5-4-3-4-3-4-3-4-5-------------------------------------------------|

Zwrotka:

Wrony ...

Eb|-------------------------------------------------------------------|
Bb|-------------------------------------------------------------------|
Gb|-------------------------------------------------------------------|
Db|-5-4-3-4-3-4-3-4-5-------------------------------------------------|
Ab|-5-4-3-4-3-4-3-4-5-------------------------------------------------|
Db|-5-4-3-4-3-4-3-4-5-------------------------------------------------|

Dodaj komentarz ...i/lub link do filmiku video

Zaloguj się do serwisu
Ostatnie komentarze
1.
petlica
2010-11-18 15:44
Może trochę luźniej, nie ma sensu tu nikogo obrażać, poza tym Armia nie gra od początku w dropped-D tylko prawdopodobnie od czasu gdy gra tam Popcorn i prawdopodobnie nie dropped-D tylko jeszcze niżej. Pozdr
2.
qraczyna
2010-11-18 14:56
debile! armia gra prawie od [poczatku na drop D!!!!!!
3.
Viking IV Mesjasz
2009-06-01 16:25
Ruszcie głowami, wy tam dwaj narzekający. Poprzeczka na trzech strunach, to przecież charakterystyczne dla stroju DADghe. Najpierw myśl - później pisz
4.
gelek
2008-12-30 11:17
nie rozumiem dziwnew przypadłości co poniektórych, którzy uważają, że poprzeczka na trzech strunach basowych dobrze brzmi... To nie jest dobry pomysł, karol32768, może zanim zaczniesz kombinować z układaniem własnych akordów, nauczysz się tych podstawowych (np. E dur, od którego się ta piosenka zaczyna)
5.
Rectifier
2007-10-26 00:59
Niestety, grając według tego niczego nie zagrasz co by przypominało Armię.
Wszelkie materiały i wypowiedzi zamieszczone na www.chords.pl są własnością ich autorów.