Zacznij systematycznie uczyć się grać na gitarze razem ze stroną Moja nauka - będziesz miał/miała do niej dostęp po zalogowaniu się w serwisie

Sodoma i Gomora - Armia

Opracował -a: PixieLady888,
Data publikacji: 2005-02-20 15:29
 
Moja nauka


Ups, problem :-/
Zaloguj się Mój śpiewnik
Tonacja: DROPPED D

Wstęp i zwrotka:
E-|---------------------------------------------------------------------------|
B-|---------------------------------------------------------------------------|
G-|---------------------------------------------------------------------------|
D-|--5x-----8x---7x---------0--0---3/5----------------------------------------|
A-|--5x-----8x---7x---------0--0---3/5----------------------------------------|
D-|--5x-----8x---7x---------0--0---3/5----------------------------------------|


Refren (wolniej):
E-|---------------------------------------------------------------------------|
B-|---------------------------------------------------------------------------|
G-|---------------------------------------------------------------------------|
D-|--5------8----7----------0--0---3-0----------------------------------------|
A-|--5------8----7----------0--0---3-0----------------------------------------|
D-|--5------8----7----------0--0---3-0----------------------------------------|

   Przejście:
E-|---------------------------------------------------------------------------|
B-|---------------------------------------------------------------------------|
G-|---------------------------------------------------------------------------|
D-|--12x----10x---7x----------------------------------------------------------|
A-|--10x-----8x---5x----------------------------------------------------------|
D-|---------------------------------------------------------------------------|

   Zakończenie:
E-|---------------------------------------------------------------------------|
B-|---------------------------------------------------------------------------|
G-|---------------------------------------------------------------------------|
D-|-5-------------------------------------------------------------------------|
A-|-5-------------------------------------------------------------------------|
D-|-5-------------------------------------------------------------------------|

Dodaj komentarz ...i/lub link do filmiku video

Zaloguj się do serwisu
Ostatnie komentarze
1.
egeszege
2008-07-28 14:53
Moim zdaniem ten riff leci tak: E-|---------------------------------------------------------------------------| B-|---------------------------------------------------------------------------| G-|---------------------------------------------------------------------------| D-|--5x-----8x---7x---------0--3--0--3------------------------------------| A-|--5x-----8x---7x---------0--3--0--3------------------------------------| D-|--5x-----8x---7x---------0--3--0--3------------------------------------| W refrenie podobnie....
Wszelkie materiały i wypowiedzi zamieszczone na www.chords.pl są własnością ich autorów.