Zacznij systematycznie uczyć się grać na gitarze razem ze stroną Moja nauka - będziesz miał/miała do niej dostęp po zalogowaniu się w serwisie

Wspaniała nowina - Armia

Opracował -a: biskup,
Pochodzi z: http://www.chords.pl
Data publikacji: 2005-02-24 07:15
 
Moja nauka


Ups, problem :-/
Zaloguj się Mój śpiewnik
[zwrotka]
E-----------5--5---
H-----------5--5---
G-----------5--5---
D--3--2--3---------
A--3--2--3---------
D--3--2--3---------

[przejście]
E-------------------------------------------
H-------------------------------------------
G-------------------------------------------
D--7--------10--------5^3--3-3----5^3--3-3--
A--7--------10--------5^3--3-3----5^3--3-3--
D--7--------10--------5^3--3-3----5^3--3-3--

Dodaj komentarz ...i/lub link do filmiku video

Zaloguj się do serwisu
Wszelkie materiały i wypowiedzi zamieszczone na www.chords.pl są własnością ich autorów.