Zacznij systematycznie uczyć się grać na gitarze razem ze stroną Moja nauka - będziesz miał/miała do niej dostęp po zalogowaniu się w serwisie

Na ulice - Armia

Opracował -a: biskup,
Pochodzi z: http://www.chords.pl
Data publikacji: 2005-02-22 00:03
 
Moja nauka


Ups, problem :-/
Zaloguj się Mój śpiewnik
 CIS5                    GIS5
E------------------------------------------------
H------------------------------------------------
G-------------------------13-13-13-13-13-13-13-13
D-11-11-11-11-11-11-11-11-13-13-13-13-13-13-13-13
A-11-11-11-11-11-11-11-11-11-11-11-11-11-11-11-11
E--9--9--9--9--9--9--9--9------------------------ x4


  GIS5            C5
E----------------------------------------
H----------------------------------------
G----------------------------------------
D-6-6-6-6-6-6-6-6-10-10-10-10-10-10-10-10
A-6-6-6-6-6-6-6-6-10-10-10-10-10-10-10-10
E-4-4-4-4-4-4-4-4--8--8--8--8--8--8--8--8 x4

  CIS5                    GIS5
E------------------------------------------------
H------------------------------------------------
G-------------------------13-13-13-13-13-13-13-13
D-11-11-11-11-11-11-11-11-13-13-13-13-13-13-13-13
A-11-11-11-11-11-11-11-11-11-11-11-11-11-11-11-11
E--9--9--9--9--9--9--9--9------------------------ x4


  GIS5            C5
E----------------------------------------
H----------------------------------------
G----------------------------------------
D-6-6-6-6-6-6-6-6-10-10-10-10-10-10-10-10
A-6-6-6-6-6-6-6-6-10-10-10-10-10-10-10-10
E-4-4-4-4-4-4-4-4--8--8--8--8--8--8--8--8 x4

  DIS5            GIS5    G5
E--------------------------------
H--------------------------------
G-8-8-8-8-8-8-8-8----------------
D-8-8-8-8-8-8-8-8-6-6-6-6-5-5-5-5
A-6-6-6-6-6-6-6-6-6-6-6-6-5-5-5-5
E-----------------4-4-4-4-3-3-3-3

  DIS5            GIS5    C5
E------------------------------------
H------------------------------------
G-8-8-8-8-8-8-8-8--------------------
D-8-8-8-8-8-8-8-8-6-6-6-6-10-10-10-10
A-6-6-6-6-6-6-6-6-6-6-6-6-10-10-10-10
E-----------------4-4-4-4--8--8--8--8 x2

Dodaj komentarz ...i/lub link do filmiku video

Zaloguj się do serwisu
Wszelkie materiały i wypowiedzi zamieszczone na www.chords.pl są własnością ich autorów.