Zacznij systematycznie uczyć się grać na gitarze razem ze stroną Moja nauka - będziesz miał/miała do niej dostęp po zalogowaniu się w serwisie

Pięknoręki - Armia

Opracował -a: biskup,
Pochodzi z: http://www.chords.pl
Data publikacji: 2005-02-22 00:04
 
Moja nauka


Ups, problem :-/
Zaloguj się Mój śpiewnik
Wejście:
E---------------
H-----------0---
G---------0-----
D-------0-------
A-----3---------
D---3-----------

E-----------------------------------------
H-----------------------------------------
G-----------------------------------------
D---3-PM--3-PM--3-------2-PM--2-PM--2-PM - x3
A---3-PM--3-PM -3^5^3^2-2-PM--2-PM--2-PM--
D---3-PM--3-PM -3^5^3^2-2-PM--2-PM--2-PM--

za ostatnim razem:
E----------------------0--
H----------------------0--
G----------------------0--
D---3-PM--3-PM--3------0--
A---3-PM--3-PM -3^5^3--3--
D---3-PM--3-PM -3^5^3--3--

"Piękny,...":
E-----------------------------------------
H-----------------------------------------
G-----------------------------------------
D---3-3---3-3---3-------2-2---2-2---2-2- - x4
A---3-3---3-3- -3^5^3^2-2-2---2-2---2-2---
D---3-3---3-3- -3^5^3^2-2-2---2-2---2-2---
      PM    PM            PM    PM    PM

"Lecą anioły...":
E---------4-----------4-----------6-------------4---
H---------5-----------5-----------7-------------5---
G---------4-----------4-----------6-------------4---
D--3------0-----3-----0-----3-----0------3------0---
A--3------------3-----------3------------3----------
D--3------------3-----------3------------3----------

Przejście (bridge):
E----------------------------------------------------------
H---------------0---0--------------0---0-------------0---0-
G-------------0---0--------------0---0-------------0---0---
D--0---5---3----------1---4---3----------1---4---3---------
A--0---5---3----------1---4---3----------1---4---3---------
D--0---5---3----------1---4---3----------1---4---3---------

E---------------------
H---------------------
G---------------------
D--1---4---3-----12---
A--1---4---3-----12---
D--1---4---3-----12---

Dodaj komentarz ...i/lub link do filmiku video

Zaloguj się do serwisu
Ostatnie komentarze
1.
Rectifier
2007-10-24 00:23
Tak, a w przejsciu do refrenu w ostatnim takcie jest; G F G. Sam refren to; F E x2 F Fis x2 A na końcu po Dis Fis F jest slide na wysokie F (a nie na D). Moje sugestie mogą być mylne, bo nie jestem na bieżąco z Armią i piszę z pamięci bez obgrania.Jak komuś zależy to mogę wszystko poroztrzaskiwać dokładniej.
Wszelkie materiały i wypowiedzi zamieszczone na www.chords.pl są własnością ich autorów.