Zacznij systematycznie uczyć się grać na gitarze razem ze stroną Moja nauka - będziesz miał/miała do niej dostęp po zalogowaniu się w serwisie

Nie ja - Armia

Opracował -a: biskup,
Pochodzi z: http://www.chords.pl
Data publikacji: 2005-02-22 00:03
 
Moja nauka


Ups, problem :-/
Zaloguj się Mój śpiewnik
wejście (riff1):
E------
H------
G------
D--12--
A--12--
E--10--

zwrotka:
E--------------------------
H--------------------------
G--------------------------
D---4/5--7-8----4/5--7-8---
A---4/5--7-8----4/5--7-8---
E---2/3--5-6----2/3--5-6---

"nie żyję i nie umieram...": riff1

refren ("..nie ja, nie ja..."):
E---------------------------------------
H---------------------------------------
G---------------------------------------
D--8--8-8-8-8-8-8--7--7-7-7-7-7-7--12---
A--8--8-8-8-8-8-8--7--7-7-7-7-7-7--12---
E--6--6-6-6-6-6-6--5--5-5-5-5-5-5--10---

E--------------------------------------------
H--------------------------------------------
G--------------------------------------------
D--13--13-13-13-13-13-13--7--7-7-7-7-7-7--12- x3
A--13--13-13-13-13-13-13--7--7-7-7-7-7-7--12-
E--11--11-11-11-11-11-11--5--5-5-5-5-5-5--10-

solo:
E--------------------5/6-5/6-------------------5/6-5/6--
H--8-6-5-8-6-5-8-6-5---------8-6-5-8-6-5-8-6-5----------
G-------------------------------------------------------
D-------------------------------------------------------
A-------------------------------------------------------
E-------------------------------------------------------

E-------------------------------------------------------
H--8-6-5-8-6-5-8-6-5-------------------------------8----
G--------------------7-------6^7^6^7^6---6^7^6^7^6------
D--------------------------------------8----------------
A-------------------------------------------------------
E-------------------------------------------------------

"odnaleziono wreszcie...":
E--------------------
H--------------------
G--------------------
D--5-5-5-5---9-/-11--
A--5-5-5-5---9-/-11--
E--3-3-3-3---7-/--9--

Dodaj komentarz ...i/lub link do filmiku video

Zaloguj się do serwisu
Wszelkie materiały i wypowiedzi zamieszczone na www.chords.pl są własnością ich autorów.