Zacznij systematycznie uczyć się grać na gitarze razem ze stroną Moja nauka - będziesz miał/miała do niej dostęp po zalogowaniu się w serwisie

Marność - Armia

Opracował -a: biskup,
Pochodzi z: http://www.chords.pl
Data publikacji: 2005-02-22 00:03
 
Moja nauka


Ups, problem :-/
Zaloguj się Mój śpiewnik
 A                 1    2              3                4    5
E----------0------:----:--------------:----------------:----:------0-|
H--------3---3----:----:----1-1-1-2-2-:--1-1-1-1-1-2-2-:----:-----3--|
G------1-------1--:----:----0-0-0-0-0-:--0-0-0-0-0-0-0-:----:----1---|
D-----------------:----:--------------:----------------:-12-:---0----|
A-----------------:-0--:-0------------:-0--------------:-12-:--0-----|
D-2-3-------------:-0--:-0------------:-0--------------:-12-:-3------|

Riff B (xn)
|-     grać n razy        -|  później:
E---------10-8------10-8---:------------10-10-10---------------------|
H-10\5/10------8-10------8-:------11-10--8--8--8---------------------|
G--8\3/-8------------------:-------8--8------------------------------|
D--------------------------:-----------------------------------------|
A--------------------------:-----------------------------------------|
D--------------------------:-----------------------------------------|

Riff C (zwrotka)

E----------------------------------8-8-8-8-8-8-8-8-8-|
H----------------------------------8-8-8-8-8-8-8-8-8-|
G----------------------------------8-8-8-8-8-8-8-8-8-| x4
D-10/12-12-12-12-12-12-12--6-6-6-6-------------------|
A-10/12-12-12-12-12-12-12--6-6-6-6-------------------|
D-10/12-12-12-12-12-12-12--6-6-6-6-------------------|

 na uszy lisa,                jedziemłe
E----------------------------------------------------|
H----------------------------------------------------|
G----------------------------------------------------|
D-10/12-12-12-12-12-12-12--1-1-1-1-1-1-1-1-----------|
A-10/12-12-12-12-12-12-12--1-1-1-1-1-1-1-1-----------|
D-10/12-12-12-12-12-12-12--1-1-1-1-1-1-1-1-----------|

Riff D ("marność")

|-         n razy     -| później
E----------------------:-----------------------------|
H----------------------:-----------------------------|
G----------------------:-----------------------------|
D-0--0--3/5555555\3-0--:-0--0--3/5555555/7--12-------|
A-0--0--3/5555555\3-0--:-0--0--3/5555555/7--12-------|
D-0--0--3/5555555\3-0--:-0--0--3/5555555/7--12-------|

po drugim refrenie bez "12"-ek

Riff E (przerywnik)

E----------10------------5----------------------|
H-11-10-11--8-11-10--5-6-3-6-5-6----------------|
G--8--8--8-----8--8--3-3---3-3-3----------------| x3
D-----------------------------------------------|
A-----------------------------------------------|
D-----------------------------------------------|

E----------10----------10-10-10-10-10-10-10-10--|
H-11-10-11--8-11-10-11--8--8--8--8--8--8--8--8--|
G--8--8--8-----8--8--8--------------------------|
D-----------------------------------------------|
A-----------------------------------------------|
D-----------------------------------------------|

Riff F

E-5-55-5-5-55-5-5-3-33-3-1-0-0---|
H-6-66-6-6-66-6-6-5-55-5-3-1-1---|
G-7-77-7-7-77-7-7-5-55-5-3-2-2---| x3
D-0-00-0-0-00-0-0-0-00-0-0-0-0---|
A--------------------------------|
D--------------------------------|

E-0-0-----------------0----------|
H-1-1--3-3----3----3--3----------|
G-2-2--2-2--1-1--1-1--2----------|
D-0-0--0-0--0----0----0----------|
A--------------------------------|
D--------------------------------|

Kolejność:
-Riff A1 x3, A4            intro
-Riff A2, A1, A2, A3, B x3 "ta bajka..."
-Riff C, B x1              "mieszkam we mgle..."
-Riff D x3                 "marność..."
-Riff A2, A1, A3 x2, B x3  "ta bajka..."
-Riff C, B x1              "on Lanek..."
-Riff D x7                 "marność..."
-Riff B x3, E              Budzy sobie odpoczywa :)
-Riff C, B x1              "Mamoń..."
-Riff D x7               "marność..."
-Riff A2, A1, A2, A1       "ta bajka..."
-Riff F, A1 x3, A5         outro

Dodaj komentarz ...i/lub link do filmiku video

Zaloguj się do serwisu
Wszelkie materiały i wypowiedzi zamieszczone na www.chords.pl są własnością ich autorów.