Zacznij systematycznie uczyć się grać na gitarze razem ze stroną Moja nauka - będziesz miał/miała do niej dostęp po zalogowaniu się w serwisie

Bóg jest miłością - Armia

Opracował -a: biskup,
Pochodzi z: http://www.chords.pl
Data publikacji: 2005-02-22 00:01
 
Moja nauka


Ups, problem :-/
Zaloguj się Mój śpiewnik
Strojenie: E -> D (eGHDAD)

Riff A1
                          *1             *2
H-------------------------|-/14\-9-9-9-9-9-9-9-9-|------9-9-9-9-9-9-9-9-|
D-7-8-8-8-5h7-8-8-8-5h7-5-|-/14\-9-9-9-9-9-9-9-9-|-/19\-9-9-9-9-9-9-9-9-|
A-7-8-8-8-5h7-8-8-8-5h7-5-|-/12\-7-7-7-7-7-7-7-7-|-/19\-7-7-7-7-7-7-7-7-|
D-7-8-8-8-5h7-8-8-8-5h7-5-|----------------------|-/19\-----------------|

Riff A2

e--9-10-10-10-7/-9-10-10-10-7/-9-7/-9------------------|
G-10-11-11-11-8/10-11-11-11-8/10-8/10------------------|
H--9-10-10-10-7/-9-10-10-10-7/-9-7/-9--9-9-9-9-9-9-9-9-|
D--------------------------------------9-9-9-9-9-9-9-9-|
A--------------------------------------7-7-7-7-7-7-7-7-|

Riff B
                 p.m.D-7-7-7-7-7-7-7-7-2-2-2-2-2-2-2-2-7-7-7-7-7-7-7-7-2-2-2/6\2-|
A-7-7-7-7-7-7-7-7-2-2-2-2-2-2-2-2-7-7-7-7-7-7-7-7-2-2-2/6\2-|
D-7-7-7-7-7-7-7-7-2-2-2-2-2-2-2-2-7-7-7-7-7-7-7-7-2-2-2/6\2-|

D-7-7-7-7-7-7-7-7-2-2-2-2-2-2-2-2-7-7-7-7-7-7-7-7-2-2-2/6\2-|
A-7-7-7-7-7-7-7-7-2-2-2-2-2-2-2-2-7-7-7-7-7-7-7-7-2-2-2/6\2-|
D-7-7-7-7-7-7-7-7-2-2-2-2-2-2-2-2-7-7-7-7-7-7-7-7-2-2-2/6\2-|

Riff C

D-7-3-8-1/2-7-3-8-7-3-8-1/2-7-3-8-|
A-7-3-8-1/2-7-3-8-7-3-8-1/2-7-3-8-|
D-7-3-8-1/2-7-3-8-7-3-8-1/2-7-3-8-|

Po pierwszym refrenie riff kończy się:

D-1/2-7---7\-8\-9\-11\|
A-1/2-7---7\-8\-9\-11\|
D-1/2-7---7\-8\-9\-11\|

Po drugim refrenie:

D-1/2-7-3-8-1/2-7-3-8-1/2-7-3-8-1/2-7-3-8-
A-1/2-7-3-8-1/2-7-3-8-1/2-7-3-8-1/2-7-3-8-
D-1/2-7-3-8-1/2-7-3-8-1/2-7-3-8-1/2-7-3-8-

Riff D

D-------------------------------------|
A---4p3h4p3---4p3h4---6p5h6p5---3p2h3-|
D-3---------3-------5---------2-------|

Riff E

D-----------------------------------|
A-333333333333333355555555222222222-|
D-333333333333333355555555222222222-|

Riff F

D-7--3--2--2--|
A-7--3--2--2--|
D-7--3--2--2--|

Dodaj komentarz ...i/lub link do filmiku video

Zaloguj się do serwisu
Wszelkie materiały i wypowiedzi zamieszczone na www.chords.pl są własnością ich autorów.