Zacznij systematycznie uczyć się grać na gitarze razem ze stroną Moja nauka - będziesz miał/miała do niej dostęp po zalogowaniu się w serwisie

Jestem smutny - Armia

Opracował -a: biskup,
Pochodzi z: http://www.chords.pl
Data publikacji: 2005-02-22 00:02
 
Moja nauka


Ups, problem :-/
Zaloguj się Mój śpiewnik
E----------------------------------------
H----------------------------------------
G----------------------------------------
D--2-5-2-0-2-2-5-2-0-----2-5-2-0-2-5-4---
A--2-5-2-0-2-2-5-2-0-----2-5-2-0-2-5-4---
D--2-5-2-0-2-2-5-2-0-----2-5-2-0-2-5-4---

zwrotka:
E----------------------------------------
H----------------------------------------
G----------------------------------------
D--2---------------------7-3-------------
A--2---------------------7-3-------------
D--2---------------------7-3-------------
   myśliwskie samoloty...

E------------------------
H------------------------
G----------4------3------
D---2------5------4------
A---2------5------4------
D---2------5------4------

E------------------------------------------------------------------
H------------------------------------------------------------------
G------------------------------------------------------------------
D-2-2----------6-6----------4-4-----------3-3-------x-x-7--x-x-7---
A-2-2----------6-6----------4-4-----------3-3-------x-x-7--x-x-7---
D-2-2----------6-6----------4-4-----------3-3-------x-x-7--x-x-7---
              o panie      wspomagaj mnie

Dodaj komentarz ...i/lub link do filmiku video

Zaloguj się do serwisu
Wszelkie materiały i wypowiedzi zamieszczone na www.chords.pl są własnością ich autorów.