Zacznij systematycznie uczyć się grać na gitarze razem ze stroną Moja nauka - będziesz miał/miała do niej dostęp po zalogowaniu się w serwisie

Jingle Bells - Kolędy i Pastorałki

Opracował -a: JareKSG,
Redaktor: Tomek Pietrzkowski,
Data publikacji: 2008-11-15 10:42
 
Moja nauka


Ups, problem :-/
Zaloguj się Mój śpiewnik


E--0-0-0--0-0-0--0-3------0
B---------------------1-3--
G--------------------------
D--------------------------
A--------------------------
E--------------------------

E--1-1-1-1-1-0-0-0-0-----0---3
B--------------------3-3---3--
G-----------------------------
D-----------------------------
A-----------------------------
E-----------------------------

E--0-0-0--0-0-0--0-3------0
B---------------------1-3--
G--------------------------
D--------------------------
A--------------------------
E--------------------------

E--1-1-1-1-1-0-0-0-0--3-3-1----
B---------------------------3-1
G------------------------------
D------------------------------
A------------------------------
E------------------------------
Dodał: rosapp, 2014-11-24 16:27
Opracowania video z komentarzy

Dodaj komentarz ...i/lub link do filmiku video

Zaloguj się do serwisu
Wszelkie materiały i wypowiedzi zamieszczone na www.chords.pl są własnością ich autorów.