Zacznij systematycznie uczyć się grać na gitarze razem ze stroną Moja nauka - będziesz miał/miała do niej dostęp po zalogowaniu się w serwisie

Cicha Noc (tab) - Kolędy i Pastorałki

Dodał -a: melody232,
Redaktor: Tomek Pietrzkowski,
Data publikacji: 2009-11-18 00:06
 
Moja nauka


Ups, problem :-/
Zaloguj się Mój śpiewnik


    G6
e||----------0--------|-------------------|----------0--------
H||--3----------3-----|-------------3-----|--3----------3-----
G||-------------------|--4------4------4--|-------------------
D||-------5--------5--|------5------------|-------5--------5--
A||--5----------------|--5----------------|--5----------------
E||-------------------|-------------------|-------------------

                       D
|-------------------|--5-------5--------|-------------------
|------------3------|--7-------7--------|--7-------7--------
|--4------4-----4---|------7--------7---|------7-------7----
|-----5-------------|--0----------------|--0----------------
|--5----------------|-------------------|-------------------
|-------------------|-------------------|-------------------

   G                           G7          C
|--3-------3--------|---------------3---|-------------------
|-------------------|--3-------6--------|--5--------5-------
|------4--------4---|------4------------|--5--------5-------
|-------------------|--5-------5--------|--5-----5------5---
|-------------------|-------------------|--7----------------
|--3----------------|-------------------|-------------------

                       G6
|-------------------|---------0---------|-------------------
|--8------7----5----|--3----------3-----|-------------3-----
|--5------5----5----|--4----------------|--4------4---------
|--5---5-----5---5--|-----5----------5--|------5---------5--
|--7----------------|--5----------------|--5------5---------
|-------------------|-------------------|-------------------

   C                                       G6
|-------------------|-------------------|---------0---------
|--5-------5--------|--8-----7------5---|--3---------3------
|--5-------5--------|--5-----5------5---|--4----------------
|--5---5-------5----|--5--5-----5---5---|-----5---------5---
|--7----------------|--7------------5---|--5----------------
|-------------------|-------------------|-------------------

                       D                   D7
|-------------------|--5---------5------|--8------5---------
|------------3------|--------7------7---|-----7--------7----
|--4------4---------|-----7---------7---|-----7-----7-----7-
|-----5---------5---|--0----------------|--0------0----0----
|--5------5---------|-------------------|-------------------
|-------------------|-------------------|-------------------

   G
|-------------------|---7---------------|--3----------------
|--8----------------|---8---------------|-------3-----------
|-------------7-----|---7---------------|------------4------
|----------5-----5--|---0---------------|---------------5---
|------5------------|----------2---0----|---------5---------
|-------------------|-------------------|----3--------------

   D5                   G
|-------------------|--------------------||-------------------||
|--3----1-----------|--------------------||-------------------||
|--2--------2-------|---0----------------||--0----------------||
|--0----------------|---0----------------||--0----------------||
|-------------------|---2----2---3-------||--2----------------||
|-------------------|---3----------------||--3----------------||
Dodał: rosapp, 2014-11-13 09:32
Opracowania video z komentarzy

Dodaj komentarz ...i/lub link do filmiku video

Zaloguj się do serwisu
Wszelkie materiały i wypowiedzi zamieszczone na www.chords.pl są własnością ich autorów.