Zacznij systematycznie uczyć się grać na gitarze razem ze stroną Moja nauka - będziesz miał/miała do niej dostęp po zalogowaniu się w serwisie

Gdy śliczna panna (kolęda na rockowo 2009) - Kolędy i Pastorałki

Dodał -a: rodzina123,
Redaktor: Tomek Pietrzkowski,
Pochodzi z: http://www.chords.pl
Data publikacji: 2009-12-16 00:19
 
Moja nauka


Ups, problem :-/
Zaloguj się Mój śpiewnik


E1 -------------------------------------------------------
H2 ---------------------------9~~-8-----------------------
G3 -----------7--8~~--8~~--10-------10--10~~--8~~---------
D4 --8~~--10----------------------------------------------
A5 -------------------------------------------------------
E6 -------------------------------------------------------


E1 -------------------------------------------------------
H2 ---------------------------9~~-8-----------------------
G3 -----------7--8~~--8~~--10-------10--10~~--8~~---------
D4 --8~~--10----------------------------------------------
A5 -------------------------------------------------------
E6 -------------------------------------------------------




E1 -------------------------------------------------------
H2 --8~~----8~~-------------------------------------------
G3 -----10-----8---10~~~~-7--10~~--8--7~~-----------------
D4 --------------------------------------10~~--8~~~~------
A5 -------------------------------------------------------
E6 -------------------------------------------------------


E1-------------------------------------------------------
H2--8~~----8~~----9~~~~-8~~-11--9-8----------------------
G3-----10-----8---------------------10-8-10~~--8~~~~-----
D4-------------------------------------------------------
A5-------------------------------------------------------
E6-------------------------------------------------------

Dodaj komentarz ...i/lub link do filmiku video

Zaloguj się do serwisu
Wszelkie materiały i wypowiedzi zamieszczone na www.chords.pl są własnością ich autorów.