Zacznij systematycznie uczyć się grać na gitarze razem ze stroną Moja nauka - będziesz miał/miała do niej dostęp po zalogowaniu się w serwisie

Anioł pasterzom mówił (kolęda na rockowo 2009) - Kolędy i Pastorałki

Dodał -a: rodzina123,
Redaktor: Tomek Pietrzkowski,
Pochodzi z: http://www.chords.pl
Data publikacji: 2009-12-16 00:19
 
Moja nauka


Ups, problem :-/
Zaloguj się Mój śpiewnik


E1 -------------|--------------|-------------|--------------|
H2 -------------|--------------|-------5--5--|--------------|
G3 -------------|-4------------|-7--7--------|-7--6--7~~~~--|
D4 -5--5--7--7--|----7--5~~~~--|-------------|--------------|
A5 -------------|--------------|-------------|--------------|
E6 -------------|--------------|-------------|--------------|




E1 -------------|--------------|--------------|
H2 -------5~~~~-|--------------|--------------|
G3 -7--7--------|-7--7--5--5---|-4--4---------|
D4 -------------|--------------|-------7~~~~--|
A5 -------------|--------------|--------------|
E6 -------------|--------------|--------------|


               E1 -------------|--------------|
               H2 -------------|--------------|
               G3 ---7-7-7--5--|-4-7----------|
               D4 -------------|--------7~~~~-|
               A5 -------------|--------------|
               E6 -------------|--------------|


E1 ------------|---------------|--------------|
H2 ------------|---------------|--------------|
G3 -7~~---4--5-|-4~~~~---------|--------------|
D4 ------------|--------7~~~~--|-5~~~~--------|
A5 ------------|---------------|--------------|
E6 ------------|---------------|--------------|

Dodaj komentarz ...i/lub link do filmiku video

Zaloguj się do serwisu
Ostatnie komentarze
1.
erykgrochot
2010-11-05 16:35
Dośc fajne wykorzystanie techniki vibrato.Właśnie przygotowuję się trochę do grania kolęd na rockowo.Myślę że udami się wymyślić jakąś inną fajną wersję tej kolędy pliki umieszczę na stronie po 10.12.10. Eryk Grochot
2.
pszczolka_maja13
2009-12-22 20:38
Bardzo dziękuję za pomoc :)
3.
rodzina123
2009-12-22 18:44
Do pobrania są próbki - wersje dość krótkie... Jeśłi ktoś ma program Audacity - można sobie to skopiować i powielić ( wydłużyć ) Pozdrawiam
4.
pszczolka_maja13
2009-12-22 16:23
Witam! Bardzo podobają mi się opracowania kolęd :) Tylko mam takie małe pytanie... Zapłaciłam za mp3 i pobrałam. Czy do ściągnięcia są tylko takie krótkie wersje? Tj. trwające ok 40 sekund... Z góry bardzo dziękuję za odpowiedź. Serdecznie pozdrawiam!
5.
fiolka_hipis
2009-12-17 18:41
świetne ;)
6.
dexterpl7
2009-12-16 22:41
a jakie sa akordy, dla gitary rytmicznej?
Wszelkie materiały i wypowiedzi zamieszczone na www.chords.pl są własnością ich autorów.