Zacznij systematycznie uczyć się grać na gitarze razem ze stroną Moja nauka - będziesz miał/miała do niej dostęp po zalogowaniu się w serwisie

Dzisiaj w Betlejem (tonacja na flet) - Kolędy i Pastorałki

Opracował -a: Naseio Emini,
Redaktor: Miłosz,
Pochodzi z: http://www.chords.pl
Data publikacji: 2008-12-02 20:56
 
Moja nauka


Ups, problem :-/
Zaloguj się Mój śpiewnik


zwrotka:

E1 |-------------|-------------|-------------|------------|
H2 |-------------|-------------|-1-3-1-------|------------|
G3 |-----------0-|-2---2-0-2-3-|---------3---|-2----------|
D4 |-3---3---3---|-------------|-------------|-----0------|
A5 |-------3-----|-------------|-------------|------------|
E6 |-------------|-------------|-------------|------------|  X 2

ref:

E1 |-------------|-------------|
H2 |-1---1-------|-------------|
G3 |-------3-2-0-|-----------2-|
D4 |-------------|-3---3---3---|
A5 |-------------|-------3-----|
E6 |-------------|-------------|

E1 |-------------|-------------|-------------|------------|
H2 |-1-3-1-------|             |-1-1-3---1---|------------|
G3 |-------3-2-3-| X 2         |-------------|-3-2-0------|
D4 |-------------|             |-------------|-------3----|
A5 |-------------|-------------|-------------|------------|
E6 |-------------|-------------|-------------|------------|

by Naseio Emini
Dodał: pampalini1989, 2015-12-16 21:34
Opracowania video z komentarzy

Dodaj komentarz ...i/lub link do filmiku video

Zaloguj się do serwisu
Ostatnie komentarze
1.
rockday
2014-12-07 18:55
Hej tu ROCKDAYPL! Wrzucam moją wersję AKORDOWĄ na gitarę elektryczną kolędy. Krok po kroku pokazuję jak zagrac. Pozdrawiam Wojtek Pietraszek https://www.youtube.com/Rockdaypl
2.
rockday
2014-12-07 18:38
Hej tu ROCKDAYPL! Wrzucam moją wersję na gitarę elektryczną kolędy. Krok po kroku pokazuję jak zagrac. Pozdrawiam Wojtek Pietraszek https://www.youtube.com/Rockdaypl
Wszelkie materiały i wypowiedzi zamieszczone na www.chords.pl są własnością ich autorów.