Zacznij systematycznie uczyć się grać na gitarze razem ze stroną Moja nauka - będziesz miał/miała do niej dostęp po zalogowaniu się w serwisie

Przybieżeli do Betlejem (kolęda na rockowo 2009) - Kolędy i Pastorałki

Dodał -a: rodzina123,
Redaktor: Tomek Pietrzkowski,
Pochodzi z: http://www.chords.pl
Data publikacji: 2009-12-16 00:19, Poprawiono 2009-12-17 08:59
 
Moja nauka


Ups, problem :-/
Zaloguj się Mój śpiewnik


E1 ------------------------------12~~--14--12~~~~---------
H2 -----------12---14-12-14-15----------------------------
G3 --14-13-14---------------------------------------------
D4 -------------------------------------------------------
A5 -------------------------------------------------------
E6 -------------------------------------------------------


E1 ------------------------------12~~--14--12~~~~---------
H2 -----------12---14-12-14-15----------------------------
G3 --14-13-14---------------------------------------------
D4 -------------------------------------------------------
A5 -------------------------------------------------------
E6 -------------------------------------------------------




E1 --17~~--12-12-14-12----------------14-12---------------
H2 --------------------15-14---15--15-------15-14-12------
G3 -------------------------------------------------------
D4 -------------------------------------------------------
A5 -------------------------------------------------------
E6 -------------------------------------------------------


E1------------12~~----------------------------------------
H2--14---15---------14---12-------------------------------
G3----------------------------14~~------------------------
D4--------------------------------------------------------
A5--------------------------------------------------------
E6--------------------------------------------------------


E1 --17~~--12-12-14-12----------------14-12---------------
H2 --------------------15-14---15--15-------15-14-12------
G3 -------------------------------------------------------
D4 -------------------------------------------------------
A5 -------------------------------------------------------
E6 -------------------------------------------------------


E1------------12~~----------------------------------------
H2--14---15---------14---12-------------------------------
G3----------------------------14~~------------------------
D4--------------------------------------------------------
A5--------------------------------------------------------
E6--------------------------------------------------------
Dodał: rockday , 2014-12-07 18:18
Opracowania video z komentarzy

Dodaj komentarz ...i/lub link do filmiku video

Zaloguj się do serwisu
Ostatnie komentarze
1.
rockday
2014-12-07 18:18
Hej tu ROCKDAYPL! Wrzucam moją wersję na gitarę elektryczną kolędy Bóg się rodzi. Krok po kroku pokazuję jak zagrac. Pozdrawiam Wojtek Pietraszek https://www.youtube.com/Rockdaypl
2.
rodzina123
2010-02-04 16:38
Ja to grałem na multiefekcie POD X3 Live , ale można uzyskać podobne brzmienie używając Distortion. Pozdro
3.
Speedy0
2010-02-04 13:20
Witajcie , na jakim efekcie jest zagrane to intro ? Nie znam sie na efektach więc prosze o pomoc ...
4.
rickoo
2009-12-28 23:00
opanowałem tabulaturę w 3 minuty :) Fajnie ułożona ;)
5.
rodzina123
2009-12-19 22:47
OK - ja też nie zwróciłem na to uwagi ... Dziękujemy za czujność i spostrzegawczość. Pozdrawiam.
6.
Tomek Pietrzkowski
2009-12-18 22:07
martinparat ma rację. Literówka była na stronie głównej akcji Kolędy na rockowo. Już poprawione. Zaraz wyślę martinparat'owi kod do jednej piosenki :-) Wesołych Świąt
7.
rodzina123
2009-12-18 19:15
Hmmm...przecież jest napisane " Przybieżeli ... " ... Pozdro
8.
martinparat
2009-12-18 17:38
heh...Wszystko super tylko zmiencie "Przybierzeli" na poprawne "Przybieżeli" :) Za to ta proszę tą pioseneczkę za friko :P
9.
kelv
2009-12-16 23:38
Przybieżeli :)
Wszelkie materiały i wypowiedzi zamieszczone na www.chords.pl są własnością ich autorów.