Zacznij systematycznie uczyć się grać na gitarze razem ze stroną Moja nauka - będziesz miał/miała do niej dostęp po zalogowaniu się w serwisie

Cicha noc tab bas - Kolędy i Pastorałki

Opracował -a: edhar,
Redaktor: szymek232,
Data publikacji: 2009-02-16 15:49, Poprawiono 2009-02-17 15:58
 
Moja nauka


Ups, problem :-/
Zaloguj się Mój śpiewnik


-0-2-0---|-0-2-0---|--------------------|-2-2--5-4-2--0-2-0--------|
-------2-|-------2-|-12-12-9-9-10-10-5--|-------------------2-2----|
---------|---------|--------------------|--------------------------|
---------|---------|--------------------|--------------------------|

-2-2--5-4-2--0-2-0--------|--------------------------|-----2---3-0--------------|
-------------------2-2----|--------------------------|--------------3-----------|
--------------------------|--------------------------|--------------------------|
--------------------------|-7-7--10-7--4-5-9---------|-5-0---0------------------|
Dodał: pampalini1989, 2015-12-18 21:22
Opracowania video z komentarzy

Dodaj komentarz ...i/lub link do filmiku video

Zaloguj się do serwisu
Ostatnie komentarze
1.
koss
2011-11-08 22:06
koncowka troche pomylona. prawidlowo: |-7-7--10-7--4-5-9---------|-5-0---0------------------| |--------------------------|-----2---3-0--------------| |--------------------------|--------------3-----------| |--------------------------|--------------------------|
2.
Maras1988
2010-11-23 14:25
witam. wydaje mi sie, że końcówka tej kolendy nie brzmi prawidłowo. gdyby mogł ktos to poprawić to byłbym wdzięczny, ponieważ sam nie potrafie:)
Wszelkie materiały i wypowiedzi zamieszczone na www.chords.pl są własnością ich autorów.