Zacznij systematycznie uczyć się grać na gitarze razem ze stroną Moja nauka - będziesz miał/miała do niej dostęp po zalogowaniu się w serwisie

Nasze Słowa - KSU

Opracowali: marek1998s, Pdgrzb,
Dodał -a: marek1998s,
Redaktor: kamilRTS,
Pochodzi z: http://www.chords.pl
Data publikacji: 2008-02-21 14:17
 
Moja nauka


Ups, problem :-/
Zaloguj się Mój śpiewnik


Owoce mojej wielogodzinnej pracy. Na youtubie jest filmik jak gram piosenkę 
(wpisz w wyszukiwarkę "nasze słowa pdgrzb"). 
Nie obrażę się jeśli ktoś po przeczytaniu tabulatury zrobi własny filmik. 
Na wielu stronach tabulaturę zapisuje się "do góry nogami" 
(struna E6 jest na dole a E1 na górze) - 
jeśli pozwolicie ja zapiszę odwronie "we właściwą stronę". 
Proponuję aby siedząc przed komputerem z gitarą 
włączyć se "nasze słowa" w windows media player czy 
innym programie i krok po kroku czytając grac 
razem z odtwarzaniem (podaje czas grania poszczególnych elementów). 
Połowa z was tego nie czyta dlatego przechodzimy do rzeczy 
(proponuję zacząc od solówki bo nie tykając jej bardzo byscie mnie zasmucili):

Legenda:
/ - slide - np. 8/10 - przejechanie palcem od 8 progu do 10 
za jednym uderzeniem w strunę (słychać zmianę dźwięku)
x - tłumimy strunę nie dociskając palca do progu i uderzamy 
w strunę (tłumimy progi dociskane wcześniej lub później - 
w tym przypadku to to samo)
(2) - LEKKO tłumimy strunę w okolicach mostka bokiem dłoni i palcem 
(kostką trzymaną w) tej samej dłoni uderzamy daną strunę 
(jeśli nie wiecie o co chodzi wpiszcie w wyszukiwarkę w youtubie "palm mute")

Pierwsza gitara - ostry efekt punkowy (MIDI w dół, BASS lub LOW w górę)
Druga gitara - lekki efekt punkowy (MIDI w górę, TREBLE lub HIGH w górę)

Wstęp solo dodany przez użytkownika marek1998s:

E1-----------------------------------------------------------------------------------
H2--15---15--13--12--13-13--12--13--12----13-13-12---12--12----12--------------------
G3--------------------------------------------14-----------14--------14-------14--12-
D4-----------------------------------------------------------------------------------
A5-----------------------------------------------------------------------------------
E6-----------------------------------------------------------------------------------


E1----------------------------------------------------------------------------
H2--15-15--13--12-13--13-12--13--12-----13--13-12-----------------------------
G3----------------------------------14--------------14--12-12-12-14-12--------
D4----------------------------------------------------------------------------
A5----------------------------------------------------------------------------
E6----------------------------------------------------------------------------


Przygrywka (0:00 - 0:17)

1 gitara:

E1----------------------------------------------------------
H2----------------------------------------------------------
G3----------------------------------------------------------
D4---------------------7-7-7-7-7----------------------------
A5-2-2-2-2-2--7-7-7-7--5-5-5-5-5--5-5-5-5-5--5-4------------
E6-0-0-0-0-0--5-5-5-5-------------3-3-3-3-3--3-2------------

E1----------------------------------------------------------
H2----------------------------------------------------------
G3----------------------------------------------------------
D4---------------------7-7-7-7-7----------------------------
A5-2-2-2-2-2--7-7-7-7--5-5-5-5-5--5-5-5-5-5-----------------
E6-0-0-0-0-0--5-5-5-5-------------3-3-3-3-3-----------------

2 gitara:

E1-10-10-8-7-8-8-8-8-7-7-5--8-8-7-5-7-7-7-7-5-5-3--3/10-----
H2----------------------------------------------------------
G3----------------------------------------------------------
D4----------------------------------------------------------
A5----------------------------------------------------------
E6----------------------------------------------------------

E1-10-10-8-7-8-8-8-8-7-7-5--8-8-7-5-3-3-3-3-5-5-3-----------
H2----------------------------------------------------------
G3----------------------------------------------------------
D4----------------------------------------------------------
A5----------------------------------------------------------
E6----------------------------------------------------------


Zwrotka:

Obie gitary (0:17 - 0:31):

Nasze słowa znaczą to co znaczą...

E1---------------------------------------------------------------
H2---------------------------------------------------------------
G3--------------------x-x-7--x-x-7--x-7-)------------------------
D4-x-x-5--x-x-5--x-5--x-x-7--x-x-7--x-7-)-------x-x-5--x-x-5--x-5
A5-x-x-5--x-x-5--x-5--x-x-5--x-x-5--x-5-)2 razy-x-x-5--x-x-5--x-5
E6-x-x-3--x-x-3--x-3--------------------)-------x-x-3--x-x-3--x-3

E1------------------------------------------------------------
H2------------------------------------------------------------
G3--------------------x-x-9--x-x-9--x-9-----------------------
D4-x-x-5--x-x-5--x-5--x-x-9--x-x-9--x-9---5-5-5-5-4-4-2-------
A5-x-x-5--x-x-5--x-5--x-x-7--x-x-7--x-7---3-3-3-3-2-2-0-------
E6-x-x-3--x-x-3--x-3------------------------------------3-----

Następnie pierwsza gitara gra to jeszcze raz, a druga gitara gra (0:31 - 0:46):

Socjologów spuszczamy do szamba...

E1---------------------------------------------------------------------------
H2---------------------------------------------------------------------------
G3-0-0-0-0-2-4-2-5-4-2-0-0-0-0-2-4-2-4/5-4-2-0-0-0-0-2-4-2-5/7-7-7-7-5-5-4-2-
D4---------------------------------------------------------------------------
A5---------------------------------------------------------------------------
E6---------------------------------------------------------------------------

Następnie idzie refren (taki sam jak przygrywka 0:46 - 1:01):

1 gitara:

Nasze słowa to tylko tyle...

E1----------------------------------------------------------
H2----------------------------------------------------------
G3----------------------------------------------------------
D4---------------------7-7-7-7-7----------------------------
A5-2-2-2-2-2--7-7-7-7--5-5-5-5-5--5-5-5-5-5--5-4------------
E6-0-0-0-0-0--5-5-5-5-------------3-3-3-3-3--3-2------------

E1----------------------------------------------------------
H2----------------------------------------------------------
G3----------------------------------------------------------
D4---------------------7-7-7-7-7----------------------------
A5-2-2-2-2-2--7-7-7-7--5-5-5-5-5--5-5-5-5-5-----------------
E6-0-0-0-0-0--5-5-5-5-------------3-3-3-3-3-----------------

2 gitara:

E1-10-10-8-7-8-8-8-8-7-7-5--8-8-7-5-7-7-7-7-5-5-3--3/10-----
H2----------------------------------------------------------
G3----------------------------------------------------------
D4----------------------------------------------------------
A5----------------------------------------------------------
E6----------------------------------------------------------

E1-10-10-8-7-8-8-8-8-7-7-5--8-8-7-5-3-3-3-3-5-5-3-----------
H2----------------------------------------------------------
G3----------------------------------------------------------
D4----------------------------------------------------------
A5----------------------------------------------------------
E6----------------------------------------------------------

Zwrotka:

Obie gitary (1:01 - 1:16):

Nie dopatruj się tego, czego nie ma...

E1---------------------------------------------------------------
H2---------------------------------------------------------------
G3--------------------x-x-7--x-x-7--x-7-)------------------------
D4-x-x-5--x-x-5--x-5--x-x-7--x-x-7--x-7-)-------x-x-5--x-x-5--x-5
A5-x-x-5--x-x-5--x-5--x-x-5--x-x-5--x-5-)2 razy-x-x-5--x-x-5--x-5
E6-x-x-3--x-x-3--x-3--------------------)-------x-x-3--x-x-3--x-3

E1------------------------------------------------------------
H2------------------------------------------------------------
G3--------------------x-x-9--x-x-9--x-9-----------------------
D4-x-x-5--x-x-5--x-5--x-x-9--x-x-9--x-9---5-5-5-5-4-4-2-------
A5-x-x-5--x-x-5--x-5--x-x-7--x-x-7--x-7---3-3-3-3-2-2-0-------
E6-x-x-3--x-x-3--x-3------------------------------------3-----

Następnie pierwsza gitara gra to jeszcze raz, a druga gitara gra(1:16 - 1:30):

Drugie dno - to twoja obsesja...

E1---------------------------------------------------------------------------
H2---------------------------------------------------------------------------
G3-0-0-0-0-2-4-2-5-4-2-0-0-0-0-2-4-2-4/5-4-2-0-0-0-0-2-4-2-5/7-7-7-7-5-5-4-2-
D4---------------------------------------------------------------------------
A5---------------------------------------------------------------------------
E6---------------------------------------------------------------------------

Refren (1:30 - 2:00):

1 gitara:

Nasze słowa to tylko tyle...

E1----------------------------------------------------------
H2----------------------------------------------------------
G3----------------------------------------------------------
D4---------------------7-7-7-7-7----------------------------
A5-2-2-2-2-2--7-7-7-7--5-5-5-5-5--5-5-5-5-5--5-4------------
E6-0-0-0-0-0--5-5-5-5-------------3-3-3-3-3--3-2------------

E1----------------------------------------------------------
H2----------------------------------------------------------
G3----------------------------------------------------------
D4---------------------7-7-7-7-7----------------------------
A5-2-2-2-2-2--7-7-7-7--5-5-5-5-5--5-5-5-5-5-----------------
E6-0-0-0-0-0--5-5-5-5-------------3-3-3-3-3-----------------

2 gitara:

E1-10-10-8-7-8-8-8-8-7-7-5--8-8-7-5-7-7-7-7-5-5-3--3/10-----
H2----------------------------------------------------------
G3----------------------------------------------------------
D4----------------------------------------------------------
A5----------------------------------------------------------
E6----------------------------------------------------------

E1-10-10-8-7-8-8-8-8-7-7-5--8-8-7-5-3-3-3-3-5-5-3-----------
H2----------------------------------------------------------
G3----------------------------------------------------------
D4----------------------------------------------------------
A5----------------------------------------------------------
E6----------------------------------------------------------


I jeszcze raz to samo, a potem to takie cichutkie przed solówką(2:00 - 2:14):


1 gitara:

E1----------------------------------------------------------
H2----------------------------------------------------------
G3----------------------------------------------------------
D4---------------------------------------(7)-(7)-(7)-(7)-(7)
A5-(2)-(2)-(2)-(2)-(2)--(7)-(7)-(7)-(7)--(5)-(5)-(5)-(5)-(5)
E6-(0)-(0)-(0)-(0)-(0)--(5)-(5)-(5)-(5)---------------------

E1---------------------
H2---------------------
G3---------------------
D4---------------------
A5-(5)-(5)-(5)-(5)-(5)-
E6-(3)-(3)-(3)-(3)-(3)-

E1---------------------------------------------------
H2---------------------------------------------------
G3-------------------------------------------7-------
D4-------------------------------------------7-------
A5-(2)-(2)-(2)-(2)-(2)--(7)-(7)-(7)-(7)------5-------
E6-(0)-(0)-(0)-(0)-(0)--(5)-(5)-(5)-(5)-(Wielki Fuzz)

2 gitara:

E1----------------------------------
H2----------------------------------
G3-------7-------------------7------
D4-2--7--7--5-4--2--7--------7------
A5-2--7--5--5-4--2--7--------5------
E6-0--5-----3-2--0--5--(Wielki Fuzz)


I SOLÓWKA (moja duma nad którą siedziałem z gitarą 
z mp3 na uszach, w którym 10 sekund po wcisnieciu 
PAUSE sie wyłanczał - dostępu do kompputera nie miałem)

1 gitara (gra to samo w kółko przez reszte utworu 2:14 - 3:14):

E1----------------------------------------------------------
H2----------------------------------------------------------
G3----------------------------------------------------------
D4---------------------7-7-7-7-7----------------------------
A5-2-2-2-2-2--7-7-7-7--5-5-5-5-5--5-5-5-5-5--5-4------------
E6-0-0-0-0-0--5-5-5-5-------------3-3-3-3-3--3-2------------

E1----------------------------------------------------------
H2----------------------------------------------------------
G3----------------------------------------------------------
D4---------------------7-7-7-7-7----------------------------
A5-2-2-2-2-2--7-7-7-7--5-5-5-5-5--5-5-5-5-5-----------------
E6-0-0-0-0-0--5-5-5-5-------------3-3-3-3-3-----------------

2 gitara (SOLO):
(2:14 - 2:29)

E1-1/7-7-7-9-10-12-12-12-12-15-15-17--14-14-15-14-10-10-12-10-7-5-
H2----------------------------------------------------------------
G3----------------------------------------------------------------
D4----------------------------------------------------------------
A5----------------------------------------------------------------
E6----------------------------------------------------------------

E1-3-3-5-7-8-8-8-7-7-5-8/10-10-9-7-3--3/7-
H2----------------------------------------
G3----------------------------------------
D4----------------------------------------
A5----------------------------------------
E6----------------------------------------

Wchodzi wokal: Nasze słowa to tylko tyle...
(2:29 - 2:44)

E1-1/7-7-7-9-10-12-12-12-12-15-15-17--14-14-15-14-10-10-12-10-7-5-
H2----------------------------------------------------------------
G3----------------------------------------------------------------
D4----------------------------------------------------------------
A5----------------------------------------------------------------
E6----------------------------------------------------------------

E1-3-3-5-7-8-8-8-7-7-5-8/10-10-9-7-3--3/7-
H2----------------------------------------
G3----------------------------------------
D4----------------------------------------
A5----------------------------------------
E6----------------------------------------

(2:44 - 2:59)

E1-7-7-7-9-10-12-12-12-12-15-15-17--20-20-19-17-14/15-15-15-15-17/19
H2------------------------------------------------------------------
G3------------------------------------------------------------------
D4------------------------------------------------------------------
A5------------------------------------------------------------------
E6------------------------------------------------------------------

E1-12-12-14-15-17-17-17-17-17/19-17-17-15-14-10-10-10-10-12-10-7-7-5
H2------------------------------------------------------------------
G3------------------------------------------------------------------
D4------------------------------------------------------------------
A5------------------------------------------------------------------
E6------------------------------------------------------------------

(2:59 - 3:14)

E1-7-7-7-9-10-12-12-12-12-15-15-17--20-20-19-17-14/15-15-15-15-17/19
H2------------------------------------------------------------------
G3------------------------------------------------------------------
D4------------------------------------------------------------------
A5------------------------------------------------------------------
E6------------------------------------------------------------------

E1-12-12-14-15-17-17-17-17-17/19-17-17-15-14-10-10-10-10-12-10-7-7-5
H2------------------------------------------------------------------
G3------------------------------------------------------------------
D4------------------------------------------------------------------
A5------------------------------------------------------------------
E6------------------------------------------------------------------

Większośc z was byc moze nie posiada dostepu do 20 progów 
(12 to maksimum w gitarach klasycznych) dlatego solowke mozna zagrac 
oktawę niżej zaczynając od pustej struny H2

Dodaj komentarz ...i/lub link do filmiku video

Zaloguj się do serwisu
Ostatnie komentarze
1.
Seba
2014-01-23 15:02
Poprawiłem tab. Teraz już nie będzie problemu z rozczytaniem :)
2.
_kay
2010-09-25 21:25
jak mozna wszystko na jednej strunie grac :D Ta zagrywka w intro: |--1/10---10-10-8-7--8-8-8-8-7----8-8-8-7----7-7-7-7------- |------------------------------10---------10---------10-8-- |---------------------------------------------------------- |---------------------------------------------------------- |---------------------------------------------------------- |---------------------------------------------------------- |--1/10---10-10-8-7--8-8-8-8-7----8-8-8-8-7---------------- |------------------------------10-----------10-8-8-8-8-10-8 |---------------------------------------------------------- |---------------------------------------------------------- |---------------------------------------------------------- |---------------------------------------------------------- Solówka: |--1/7---7-7-8-10--12-12-12-12-15-17-14-14-14-15-14-10-10-10-10-12-10- |--------------------------------------------------------------------- |--------------------------------------------------------------------- |--------------------------------------------------------------------- |--------------------------------------------------------------------- |--------------------------------------------------------------------- |-----------7-8-8-8-8-7----8/10---10-10-12-10--7--7-7-7----- |--8-8-8-10-------------10------------------------------10-8 |----------------------------------------------------------- |----------------------------------------------------------- |----------------------------------------------------------- |-----------------------------------------------------------
3.
kamilRTS
2008-02-27 17:30
Szkoda , że wymieszałeś gitare prowadzącą z rytmiczną :)
4.
Pdgrzb
2008-02-25 22:32
Doskonale o tym wiem bo pisywałem taby gdzie struny basowe były na dole i bardzo za to przepraszam ale myślałem, że komuś przyzwyczajonemu do odczytywania chwytów rozpiska tabulatury przysporzy kłopotów (jak mnie na przykład gdy odczytałem moją pierwszą tabulaturę) dlatego chciałem to trochę ułatwic.
5.
adam_98
2008-02-23 14:13
Dobrze że przynajmniej podpisał struny bo inaczej była by kapa. Ja się skapłem jak mi nic niepasowało i jak odczytałem podpis strun.
6.
pirat21wieka
2008-02-21 15:33
wszystko ładnie, ale szkoda, że odwróciłeś tabulatury. przyjęte jest, że struny basowe są na dole, twojego zapisu chyba nikt nie odczyta.
Wszelkie materiały i wypowiedzi zamieszczone na www.chords.pl są własnością ich autorów.