Zacznij systematycznie uczyć się grać na gitarze razem ze stroną Moja nauka - będziesz miał/miała do niej dostęp po zalogowaniu się w serwisie

Runęły mury - KSU

Opracował -a: lukasz_86,
Dodał -a: lukasz_86,
Redaktor: SEBEK1304,
Pochodzi z: http://www.chords.pl/
Data publikacji: 2012-11-08 19:09
 
Moja nauka


Ups, problem :-/
Zaloguj się Mój śpiewnik
Intro

E--------------------------------------------------
H--------------------------------------------------
G--------------------------------------------------
D-9-9-11-12-12-12-11-9-7-----9-9-11-12-12-12-11----
A-7-7--9-10-10-10-9--7-5-9---7-7--9-10-10-10-9-12--
E------------------------7---------------------10--

E----------------------------------------------
H----------------------------------------------
G----------------------------------------------
D-9-9-11-12-12-12-11-9-7-----9-9-11-12-12-12-14
A-7-7--9-10-10-10-9--7-5-9---7-7--9-10-10-10-12
E------------------------7---------------------



-------------------
-------------------
-------------------
-11----12-11-12-11-           x2
-9-----10-9--10-9--
-------------------

Zwrotka

E-----------------------------------------------
H-----------------------------------------------
G-----------------------------------------------
D-------------5/7-7-5-9-7---------------9-9-7-5-
A-5/7-7-5-7---3/5-5-3-7-5---5/7-7-5-7---7-7-5-3-
E-3/5-5-3-5-----------------3/5-5-3-5-----------

Refren

  C5   D5   G5   E5
E|----|----|----|----|
H|----|----|----|----|
G|----|----|----|----|
D|----|----|-12-|-9--|
A|-10-|-12-|-10-|-7--|
E|-8--|-10-|----|----|

Miłego grania:)
Dodał: lukasz_86, 2012-11-08 19:12
Opracowania video z komentarzy

Dodaj komentarz ...i/lub link do filmiku video

Zaloguj się do serwisu
Wszelkie materiały i wypowiedzi zamieszczone na www.chords.pl są własnością ich autorów.