Zacznij systematycznie uczyć się grać na gitarze razem ze stroną Moja nauka - będziesz miał/miała do niej dostęp po zalogowaniu się w serwisie

Chodnikowy Latawiec - KSU

Dodał -a: Mr.PanKrok,
Redaktor: Tomek Pietrzkowski,
Data publikacji: 2006-08-18 00:02
 
Moja nauka


Ups, problem :-/
Zaloguj się Mój śpiewnik


wstep: tak pare razy
E-|---------------------------------------------------------------------------|
B-|-16-16--15-12--------------------------------------------------------------|
G-|-----------------12-12-12-13-12--------------------------------------------|
D-|---------------------------------------------------------------------------|
A-|---------------------------------------------------------------------------|
E-|---------------------------------------------------------------------------|

solo:

E-|---10^11-10^11-10^11-10^11-10-11-15-8----10^11-10^11-10^11-10^11-10-11-15-10-|
B-|-----------------------------------------------------------------------------|
G-|-----------------------------------------------------------------------------|
D-|-----------------------------------------------------------------------------|
A-|-----------------------------------------------------------------------------|
E-|-----------------------------------------------------------------------------|

E-|---10^11-10^11-10^11-10^11-10-11-15-8---18-18---------------------------------|
B-|----------------------------------------------16-16--15-15--13-13-------13----|
G-|------------------------------------------------------------------15-15----12-|
D-|------------------------------------------------------------------------------|
A-|------------------------------------------------------------------------------|
E-|------------------------------------------------------------------------------|

^-podciagniecie....... czyli np. 10^11 to z 10 podciagasz na 11

Zwrotka: C G B Dis\D

Refren:  C B F G

Dodaj komentarz ...i/lub link do filmiku video

Zaloguj się do serwisu
Ostatnie komentarze
1.
pksprzystanek
2013-06-11 22:07
Solo: E-|-------------------------------15--------------------------------------15-18---- B-|-15-16-15-16-15-16-15-16-15-16-----13----15-16-15-16-15-16-15-16-15-16---------- G-|-------------------------------------------------------------------------------- E-|-------------------------------15---------18-18--------------------------------- B-|-15-16-15-16-15-16-15-16-15-16-----13-----------16-16-15-15-13-13-11-11-13------ G-|---------------------------------------------------------------------------12---
2.
pksprzystanek
2013-06-11 20:33
Intro B-|-16-----15-13-11------------------13------- G-|---------------------12-----13-13----12---- Melodia w zwrotce: B-|--------------------16-16-15-15------------ G-|-10-h12-10-h12-----------------------------
3.
tomekthepunk
2011-03-19 02:07
Ja tak bym początek zagrał tak E-|-------------------------------------| B-|-12-12--11-9--7----------------------| G-|-----------------9-9-10-9-10-14--9---| D-|-------------------------------------| A-|-------------------------------------| E-|-------------------------------------|
4.
dariakrakow
2008-07-12 13:47
E|--------------------------------------------------| H|-16-16-16-16-15-13--------------------------------| G|------------------------12-12-12-12-13/17-17/12---| D|--------------------------------------------------| A|--------------------------------------------------| E|--------------------------------------------------|
5.
PanPancerny1
2007-12-05 18:40
ja tak: E| 12-12-11-9-7----------------------9-------------------| H|-------------------12-9-9-9-10-9-----9-----------------| G|-------------------------------------------------------| D|-------------------------------------------------------| A|-------------------------------------------------------| E|-------------------------------------------------------|
6.
szczyloo
2007-07-29 18:24
no juz lepiej... wstep z oryginalu jest zupelnie nie w te skrzypce;p pzdr!
7.
cybul
2007-07-29 17:24
ja początek tak gram ;) E|-------------------------------------------------------| H|--17-17-17-16-14-12-12-9-9-9-10-9-14-9-----------------| G|-------------------------------------------------------| D|-------------------------------------------------------| A|-------------------------------------------------------| E|-------------------------------------------------------|
8.
Marco89
2007-07-29 15:51
Macwin jak masz ten wstęp to go podaj. Bardzo by mi się przydał:)
9.
macwin
2006-08-21 18:32
Witam miło że opracowałes Chodnikowego latawca solówka może byc podoba mi się jednak mam lekko zastrzerzenia do wstępu:) Niebawem podeśle swój wstęp to porównasz Pozdrawiam Macwin :)
Wszelkie materiały i wypowiedzi zamieszczone na www.chords.pl są własnością ich autorów.